» » »

Pearl Jam - Oceans Bass

Artists:  A B C D E F G H I J K L M N O P Q R S T U V W X Y Z # 

Oceans Bass

(ver. 1) Click to play this song!
Pearl Jam
 Rating:
4/5 (4 votes)


 Oceans lessons Tabs too difficult? Try these video lessons and learn fast
 
                #------------------------------------------------------------------------------##

===================
Oceans
===================       

Verse  D                                                            
----7-----7-7h9-7-|-6-----|------------|---------------------
----------------------|---6-7-|-9-9/7-7\|-4---6-6h0------
----------------------|--------|-------------|----------------------
----------------------|--------|-------------|----------------------
 
C   pre chorus

--------5-5-----------5-5-------------
-----------------------------------------
--3-3-------3-3-3-----------3-3----
----------------------------------------
 Chorus
D6                   D                     
---|----------------------------|----------------------------------
---|----------------------------|------------------------------------
-5-5--5-5---5-5-5-5-5-5-|--5-5-5-5---3-3-3-3-3-3-3---
--------------------------------|------------------------------------
            
Submit corrections



        Oceans lessons Hard to play? Try these video lessons and learn fast Oceans lessons
        
↑ Back to top | Tablatures and chords for acoustic guitar and electric guitar, ukulele, drums are parodies/interpretations of the original songs. You may use it for private study, scholarship, research or language learning purposes only