» » »

Pearl Jam - Nothingman Bass

Artists:  A B C D E F G H I J K L M N O P Q R S T U V W X Y Z # 

Nothingman Bass

(ver. 1) Click to play this song!
Pearl Jam
 Rating:
4/5 (4 votes)


 Nothingman lessons Tabs too difficult? Try these video lessons and learn fast
 
                Verse:

G-|-------------------------|
D-|-------------------------|
A-|-------------------------|
E-|--13-13/10---8--10----6--|

To Pre-Chorus:

G-|-----------------------|
D-|-----------------------|
A-|-----------------------|
E-|-6---6-6--/10----------|

Pre-Chorus:

G-|---------------------------|
D-|---------------------------|
A-|---------------------------|
E-|-8--8--8---6--6--5---------|

G-|----------------------|
D-|----------------------|
A-|----------------------|
E-|-6--6--/8-------------|

Chorus:

G-|-------------------------------|
D-|-------------------------------|
A-|-------------------------------|
E-|-13--13--/6--8--8--8--888------|


Bridge:

G-|--------------------------------------------|
D-|--------------------------------------------|
A-|--------------------------------------------|
E-|--10--10--/6--8--6--8--8--/6--8--8--/10--6--|

G-|------------|        (After short rest)
D-|------------|
A-|------------|
E-|--10--6--8--|

Outro:

G-|---------|
D-|---------|
A-|---------|
E-|--13--6--|
            
Submit corrections



        Nothingman lessons Hard to play? Try these video lessons and learn fast Nothingman lessons
        
↑ Back to top | Tablatures and chords for acoustic guitar and electric guitar, ukulele, drums are parodies/interpretations of the original songs. You may use it for private study, scholarship, research or language learning purposes only