» » »

Pearl Jam - Masterslave Bass

Artists:  A B C D E F G H I J K L M N O P Q R S T U V W X Y Z # 

Masterslave Bass

(ver. 1) Click to play this song!
Pearl Jam
 Rating:
4/5 (4 votes)


 Masterslave lessons Tabs too difficult? Try these video lessons and learn fast
 
                (Intro)
Once by Pearl Jam
Played on Fretless Bass
Rock On

Percussion                    b                b   X2 
G--------|--------|-----------5----|-----------5----|
D--------|--------|-5-7---5-7------|-5-7---5-7------|
A--------|------5-|-----3--------5-|-----3--------5-|
E--------|--------|----------------|----------------|

Guitar      b      fades out
G-----------5----|-----------5----|
D-5-7---5-7------|-5-7---5-7------|
A-----3--------5-|-----3----------|
E----------------|----------------|


Hope you enjoyed!
PEACE!
PJ RULZ
            
Submit corrections



        Masterslave lessons Hard to play? Try these video lessons and learn fast Masterslave lessons
        
↑ Back to top | Tablatures and chords for acoustic guitar and electric guitar, ukulele, drums are parodies/interpretations of the original songs. You may use it for private study, scholarship, research or language learning purposes only