» » »

Pearl Jam - Last Kiss Bass

Artists:  A B C D E F G H I J K L M N O P Q R S T U V W X Y Z # 

Last Kiss Bass

(ver. 3) Click to play this song!
Pearl Jam
 Rating:
4/5 (4 votes)


 Last Kiss lessons Tabs too difficult? Try these video lessons and learn fast
 
                Instrument: Bass
Difficulty: Novice
Tuning: Standard


The whole song pretty much goes like this. There may be rhythm issues, listen to 
the song if you want to get it 100%.

Chorus {0:02} / {1:01} / {2:08} (x2 each)
G|----------------------------------------------------------------|
D|----------------------------------------------------------------|
A|----------------------------0-2-3---3---3---3---5---5---5-------|
E|3-----3---5-3-2-0-----0-----------------------------------------|
  1 + 2 + 3 + 4 + 1 + 2 + 3 + 4 + 1 + 2 + 3 + 4 + 1 + 2 + 3 + 4 +

Verse {0:23} / {1:22} (x4 each)
G|----------------------------------------------------------------|
D|----------------------------------------------------------------|
A|----------------------------0-2-3---3---3---3-4-5---5---5-------|
E|3-----3---5-3-2-0-----0-----------------------------------------|
  1 + 2 + 3 + 4 + 1 + 2 + 3 + 4 + 1 + 2 + 3 + 4 + 1 + 2 + 3 + 4 +

At the end of the Chorus and Verse, hold

G|-----|
D|-----|
A|-----|
E|--3--|

Outro {2:29} (x4) [Slide up at the end]
G|----------------------------------------------------------------|
D|----------------------------------------------------------------|
A|----------------------------0-2-3---3---3---3---5---5---5/------|
E|3-----3---5-3-2-0-----0-----------------------------------------|
  1 + 2 + 3 + 4 + 1 + 2 + 3 + 4 + 1 + 2 + 3 + 4 + 1 + 2 + 3 + 4 +
            
Submit corrections



        Last Kiss lessons Hard to play? Try these video lessons and learn fast Last Kiss lessons
        
↑ Back to top | Tablatures and chords for acoustic guitar and electric guitar, ukulele, drums are parodies/interpretations of the original songs. You may use it for private study, scholarship, research or language learning purposes only