» » »

Pearl Jam - Jeremy Bass

Artists:  A B C D E F G H I J K L M N O P Q R S T U V W X Y Z # 

Jeremy Bass

(ver. 2) Click to play this song!
Pearl Jam
 Rating:
4/5 (4 votes)


 Jeremy lessons Tabs too difficult? Try these video lessons and learn fast
 
                Straight from the book, so complete confidence that it is correct.

*12 String Bass actually used but tabbed for a standard 4 String

Intro                x3
G|--------------------|-------------------------------------|
D|---------7----5~----|---------7----5--5-5-5-5-5-5---------|
A|-0-5h7-0----0-------|-0-5h7-0----0----------------0-5h7-0-|
E|--------------------|-------------------------------------|

Verse 1                             x4
G|-----------------------------------|
D|-7---5----------7-------5----------|
A|---0----0-5h7-0---0-5h7----0-5h7-0-|
E|-----------------------------------|

Pre Chorus
G|------9----------------------7----6-------------7---6-6----------|
D|------7----------------------7----7-------------7---7-7----------|
A|-0--0-------0---0----0-5h7-0----0--------0--0------------0-5h7-0-|
E|-----------------------------------------------------------------|

G|-----9-------7---------------7----6-------------7----6-----------|
D|-----7-------7---------------7----7-------------7----7-----------|
A|-0-0-------0---------0-5h7-0----0------------0-----0-----0-5h7-0-|
E|-----------------------------------------------------------------|

Chorus
G|----------------------------------------------------------|
D|-7----------------------------7---------------------------|
A|---8----8/5-5---7--8---0---0-------0--0---0--0----0-5h7-0-|
E|----------------------------------------------------------|

G|-------------------------------------------------------------|
D|-7-------------------------------7---------------------------|
A|---8----8/5-5---7--(7)/3--0---0-------0--0---0--0----0-5h7-0-|
E|-------------------------------------------------------------|

Verse 2                             x8
G|-----------------------------------|
D|-7---5----------7-------5----------|
A|---0----0-5h7-0---0-5h7----0-5h7-0-|
E|-----------------------------------|

Pre Chorus
G|------9----------------------7----6-------------7---6-6----------|
D|------7----------------------7----7-------------7---7-7----------|
A|-0--0-------0---0----0-5h7-0----0--------0--0------------0-5h7-0-|
E|-----------------------------------------------------------------|

G|-----9-------7---------------7----6-------------7----6-----------|
D|-----7-------7---------------7----7-------------7----7-----------|
A|-0-0-------0---------0-5h7-0----0------------0-----0-----0-5h7-0-|
E|-----------------------------------------------------------------|

Chorus
G|----------------------------------------------------------|
D|-7----------------------------7--------------7------------|
A|---10--10/5-5---7--8---0---0-------0--0---0-------0-5h7-0-|
E|----------------------------------------------------------|

G|--------------------------------------------------------------|
D|-7--------------------------------7--------------7------------|
A|---10--10/5-5---7--(7)/3---0---0-------0--0---0-------0-5h7-0-|
E|--------------------------------------------------------------|

G|----------------------------------------------------------|
D|-7----------------------------7--------------7------------|
A|---8----8/5-5---7--8---0---0-------0--0---0-------0-5h7-0-|
E|----------------------------------------------------------|

Interlude                             x3
G|-------------------------------------|-----------------------------------|
D|-7----5----------7---------5---------|-7----5----------7-------7-7-------|
A|----0----0-5h7-0---0h3-5h7---0-5h7-0-|----0----0-5h7-0---0-0-0-----5h7-0-|
E|-------------------------------------|-----------------------------------|

G|-------------------------------------|
D|-7-----------------------------------|
A|---8----8/5-5---7--8---0--2---3--5---|
E|-------------------------------------|

Chorus
G|--------------------------------------------------------------|
D|-7--------------------------------7--------------7------------|
A|---10--10/5-5---7--(7)/3---0---0-------0--0---0-------0-5h7-0-|
E|--------------------------------------------------------------|

G|----------------------------------------------------------|
D|-7----------------------------7--------------7------------|
A|---8----8/5-5---7--8---0---0-------0--0---0-------0-5h7-0-|
E|----------------------------------------------------------|

G|--------------------------------------------------------------|
D|-7--------------------------------7--------------7------------|
A|---10--10/5-5---7--(7)/3---0---0-------0--0---0-------0-5h7-0-|
E|--------------------------------------------------------------|

G|-----------------------------------------------------------------|
D|------------------------------------7-------7--------7-----7-----|
A|---------------------------------0----0---0---0--0-0---0-0---0---|
E|-1-1---1-1-1-1-1-3-3---3-3-3-3-3-------------------------------3-|

Outro                                                             x4
G|-----------------------------------------------------------------|
D|------------------------------------7-------7--------7-----7-----|
A|---------------------------------0----0---0---0--0-0---0-0---0---|
E|-1-1---1-1-1-1-1-3-3---3-3-3-3-3-------------------------------3-|

G|-----------------------------------------------------------------|
D|------------------------------------7-7-7----7-7-----------------|
A|---------------------------------0--------0-------0-0---0--0-----|
E|-1-1-1-1-1-1-1-1-3-3-3-3-3-3-3-3---------------------------------|

G|-----------------------------------------------------------------|
D|---------------------------------7-----7-----7-----7-------------|
A|-----------------------------------0-0---0-0---0-0---0-0-0-0-0---|
E|-1-1-1-1-1-1-1-1-3-3-3-3-3-3-3-3-------------------------------3-|

G|-----------------------------------------------------------------|
D|------------------------------------7-------7--------7-----------|
A|---------------------------------0----0---0---0--0-0---0---0-0---|
E|-1-1-1-1-1-1-1-1-3-3-3-3-3-3-3-3-------------------------------3-|

G|-----------------------------------------------------------------|
D|---------------------------------7-----7-----7-----7-------------|
A|-----------------------------------0-0---0-0---0-0---0-0-0-0-0-0-|
E|-1-1-1-1-1-1-1-1-3-3-3-3-3-3-3-3---------------------------------|

then

G|------12-------11---------7-------9---------4------5--------4------5---|
D|---14-------12----12----9------10---10----5------7---7----5------7---7-|
A|-0-------0~-----------0-----0~----------0-----0~--------0-----0~-------|
E|-----------------------------------------------------------------------|

G|------12-------11---------7-------9---------4------5--------4--------5*---|
D|---14-------12----12----9------10---10----5------7---7----5-------7*------|
A|-0-------0~-----------0-----0~----------0-----0~--------0-----0~----------|
E|--------------------------------------------------------------------------|
            
Submit corrections



        Jeremy lessons Hard to play? Try these video lessons and learn fast Jeremy lessons
        
↑ Back to top | Tablatures and chords for acoustic guitar and electric guitar, ukulele, drums are parodies/interpretations of the original songs. You may use it for private study, scholarship, research or language learning purposes only