» » »

Pearl Jam - Immortality Bass

Artists:  A B C D E F G H I J K L M N O P Q R S T U V W X Y Z # 

Immortality Bass

(ver. 1) Click to play this song!
Pearl Jam
 Rating:
4/5 (4 votes)


 Immortality lessons Tabs too difficult? Try these video lessons and learn fast
 
                I didnt tab the second solo.
Intro after the first guitar:
g----------------------------------------------------------------------------|
d-------------------------------------45-------------------------------------|
a--7--0---5--7--5-7-9--9-10\7--0---5-5----7--7-7-5-0-------------------------|
e------7-------------------------7-------------------7-----------------------|

Verse:
g----------------------------------------------------------------------------|
d---------------45------------------------------45---------------------------|
a--7--0----5--5-----7--5-7-9--9-10\7--0----5--5----7--77-5--0----------------|
e-------7-------------------------------7----------------------7-------------|

The verse stays the same throughout the song and it is played with the first solo as well.

Chorus:
g------------------|-----------------|--------------------|-------------|----|
d------------------|-----------------|--------------------|-------------|----|
a----3-3-3-3/7-----|----3-3-3-3/7----|----3-3-3-3-3-3/12--|------10--12-|-12-|
e------------------|-----------------|--------------------|---12--------|----|

After the third 12 in the chorus,slide to 7 on the A-string.I suppose if you kn ow the
you will know when to play it.


Interlude:
g-----------|    |----------------------------------|
d-----------|    |------------------9-9-9-9-7-7-7-7-|    x2
a--7----7h9-|x1  |--7-7-7-7-7-7-7-7-----------------|
e-----------|    |----------------------------------|


g-------------------------------------|
d-------------------------------------|
a--7-7-7-7-7-7-7-7----5-5-5-5-5-5-5-5-|
e-------------------------------------|
The 7 played on the a-string here is the second time of the interlude.
Then its back to the chorus.

There is a little piece at the end that is played as well,but f**k it.Improvise.This is
right tab.

Sweet.
            
Submit corrections



        Immortality lessons Hard to play? Try these video lessons and learn fast Immortality lessons
        
↑ Back to top | Tablatures and chords for acoustic guitar and electric guitar, ukulele, drums are parodies/interpretations of the original songs. You may use it for private study, scholarship, research or language learning purposes only