» » »

Pearl Jam - Hitchhiker Bass

Artists:  A B C D E F G H I J K L M N O P Q R S T U V W X Y Z # 

Hitchhiker Bass

(ver. 1) Click to play this song!
Pearl Jam
 Rating:
4/5 (4 votes)
    Hitchhiker lessons Tabs too difficult? Try these video lessons and learn fast
                ---------------------------------------------------------------------

                      HITCHHIKER - Pearl Jam

---------------------------------------------------------------------





00:00 - 00:13

G|--------------------------------------|--------------------------------------|
D|--------------------------------------|--------------------------------------|
A|--------------------------------------|---------------------------7---7-8-7--|
E|--5--5-5---8--8-8----7-8-7-3---3-4-3--|--5--5-5---8--8-8----7-8-7------------|


G|--------------------------------------|--------------------------------------|
D|--------------------------------------|--------------------------------------|
A|--------------------------------------|---------------------------7--(7-8-7)-|
E|--5--5-5---8--8-8----7-8-7-3---3-4-3--|--5--5-5---8--8-8----7-8-7------------|




00:14 - 00:25

G|--------------------------------------|--------------------------------------|
D|--------------------------------------|--------------------------------------|
A|--------------------------------------|--------------------------------------| x2
E|-5--8-7-8-7---10-10-10--13---12-13-12-|-5--8-7-8-7---10-10-10--13---12-13-12-|



00:25 - 00:32 (bridge 1)


G|--------------------------------------|--------------------------------------|
D|--------------------------------------|--------------------------------------|
A|--------------------------------------|--------------------------------------|
E|---6-6---6-6-6-6---6-6-6-6-6-6-6-6----|---8-8---8-8-8-8---8-8-8-8-8-8-8-8----|



00:32-00:51

G|--------------------------------------|--------------------------------------|
D|--------------------------------------|--------------------------------------|
A|--------------------------------------|---------------------------7--(7-8-7)-|  x3
E|--5--5-5---8--8-8----7-8-7-3---3-4-3--|--5--5-5---8--8-8----7-8-7------------|


00:52 - 00:57 (bridge 2)


G|--------------------------------------|--------------------------------------|
D|--------------------------------------|--------------------------------------|
A|--5-5-5-5-5-5-5-5---5-5-5-5-5-5-5-5---|--5-5-5-5-5-5-5-5---5-5-5-5-5-5-5-5---|
E|--------------------------------------|--------------------------------------|



00:58 - 1:10

G|--------------------------------------|--------------------------------------|
D|--------------------------------------|--------------------------------------|
A|--------------------------------------|---------------------------7--(7-8-7)-|  x2
E|--5--5-5---8--8-8----7-8-7-3---3-4-3--|--5--5-5---8--8-8----7-8-7------------|



1:10 - 1:16 (bridge 1)

G|--------------------------------------|--------------------------------------|
D|--------------------------------------|--------------------------------------|
A|--------------------------------------|--------------------------------------|
E|---6-6---6-6-6-6---6-6-6-6-6-6-6-6----|---8-8---8-8-8-8---8-8-8-8-8-8-8-8----|


1:17 - 1:34


G|--------------------------------------|--------------------------------------|
D|--------------------------------------|--------------------------------------|
A|--------------------------------------|--------------------------------------|  
E|--5--5-5---8--8-8--------------3-4-3--|--5--5-5---8--8-8--------------3-4-3--|

G|--------------------------------------|--------------------------------------|
D|--------------------------------------|--------------------------------------|
A|--------------------------------------|---------------------------7----------|  x2
E|--5--5-5---8--8-8----7-8-7-3---3-4-3--|--5--5-5---8--8-8----7-8-7------------|


1:35 - 2:12 (bridge 3)



G|------------------------------------|------------------------------------|
D|------------------------------------|------------------------------------|
A|--5-5-5-5-5-5-5-5--5-5-5-5-5-5-5-5--|--5-5-5-5-5-5-5-5--5-5-5-5-5-5-5-5--| x2
E|------------------------------------|------------------------------------|

G|------------------------------|
D|------------------------------|
A|--5-5-5-5-5-5-5-5--5-5-5-5-5-5|
E|------------------------------|



G|---------------------------------------------|---------------------------------------|
D|---------------------------------------------|---------------------------------------|
A|-13-13-13-13-13-13-13-13----8-8-8-8-8-8-8-8--|--5-5-5-5-5-5-5-5----5-5-5-5-5-5-5-5---| x4
E|---------------------------------------------|---------------------------------------|


G|---------------------------------------------|
D|---------------------------------------------|
A|-13-13-13-13-13-13-13-13----8-8-8-8-8-8-8-8--|
E|---------------------------------------------|






2:12 - 2:36

G|--------------------------------------|--------------------------------------|
D|--------------------------------------|--------------------------------------|
A|--------------------------------------|---------------------------7--(7-8-7)-|  x2
E|--5--5-5---8--8-8----7-8-7-3---3-4-3--|--5--5-5---8--8-8----7-8-7------------|

G|--------------------------------------|--------------------------------------|
D|--------------------------------------|--------------------------------------|
A|--------------------------------------|--------------------------------------|  x2
E|-5--8-7-8-7---10-10-10--13---12-13-12-|-5--8-7-8-7---10-10-10--13---12-13-12-|


2:37 - 2:43 (bridge 1)


G|--------------------------------------|--------------------------------------|
D|--------------------------------------|--------------------------------------|
A|--------------------------------------|--------------------------------------|
E|---6-6---6-6-6-6---6-6-6-6-6-6-6-6----|---8-8---8-8-8-8---8-8-8-8-8-8-8-8----|



2:43

G|--------------------------------------|--------------------------------------|
D|--------------------------------------|--------------------------------------|
A|--------------------------------------|---------------------------7--(7-8-7)-|  x2
E|--5--5-5---8--8-8----7-8-7-3---3-4-3--|--5--5-5---8--8-8----7-8-7------------|


G|--------------------------------------|--------------------------------------|
D|--------------------------------------|--------------------------------------|
A|--------------------------------------|--------------------------------------|  x2
E|-5--8-7-8-7---10-10-10--13---12-13-12-|-5--8-7-8-7---10-10-10--13---12-13-12-|
            
Submit corrections

↑ Back to top | Tablatures and chords for acoustic guitar and electric guitar, ukulele, drums are parodies/interpretations of the original songs. You may use it for private study, scholarship, research or language learning purposes only