» » »

Pearl Jam - Green Disease Bass

Artists:  A B C D E F G H I J K L M N O P Q R S T U V W X Y Z # 

Green Disease Bass

(ver. 2) Click to play this song!
Pearl Jam
 Rating:
4/5 (4 votes)


 Green Disease lessons Tabs too difficult? Try these video lessons and learn fast
 
                Band: Pearl Jam

/ or \= Slide Up or Down
h or p = Hammer on or pull off

T= 175
4/4

Intro & Re-Intro (Omit second half on the first re-intro)

G-----------------------------------|
D-5/7-7-7-7-7-7-7-7-----------------|
A-------------------0-0-0-0-0-0-0-0-|
E-----------------------------------|

G---------------------------------|
D---------------------------------|
A-7-7-7-7-7-7-7-7-9-9-9-9-9-9-9-9-|
E---------------------------------|

G-------------------------------------------------|
D-------------------------------------------------|
A-10-10-10-10-10-10-10-10-12-12-12-12-12-12-12-12-|
E-------------------------------------------------|

Verse

G---------------------------------|
D---------------------------------|
A-----------------7-7-7-7-7-7-7-7-|
E-9-9-9-9-9-9-9-9-----------------|

G---------------------------------|
D-6-6-6-6-6-6-6-6-----------------|
A-----------------6-6-6-6-6-6-6-6-|
E---------------------------------|

G-----------------------------------------------------------------|
D-----------------------------------------------------------------|
A---------------------------------7-7-7-7-7-7-7-7-7-7-7-7-7-7-7-7-|
E-9-9-9-9-9-9-9-9-9-9-9-9-9-9-9-9---------------------------------|

Chorus

G----------------------------------------------------------------|
D----------------------------------0---5---5-5-5-5-5-5-5-5-5-5-5-|
A-0-------------0--------------0---------------------------------|
E-----0---0-0-0------0---0-0-0-----------------------------------|

G-----------------------------------------------------|
D-----------------------------------------------------|
A-0-------------0-------------0-0-0---0-0-0-0-0-0-0-0-|
E-----0---0-0-0-----0---0-0-0-------------------------|

G----------------------------------------------------------------|
D----------------------------------0---5---5-5-5-5-5-5-5-5-5-5-5-|
A-0-------------0--------------0---------------------------------|
E-----0---0-0-0------0---0-0-0-----------------------------------|

G-----------------------------------------------------|
D-----------------------------------------------------|
A-0-------------0-------------0-0-0---0-0-0-0-0-0-0-0-|
E-----0---0-0-0-----0---0-0-0-------------------------|

Bridge (No bass in this section)

Re-Intro 2

G---------------------------------|
D---------------------------------|
A-7-7-7-7-7-7-7-7-9-9-9-9-9-9-9-9-|
E---------------------------------|

G-------------------------------------------------|
D-------------------------------------------------|
A-10-10-10-10-10-10-10-10-12-12-12-12-12-12-12-12-|
E-------------------------------------------------|

G------------------------------------------|
D------------------------------------------|
A-7-7-9-9-10-10-12\----7-7-9-9-10-10-12\---|
E------------------------------------------|

G----------------------7/9-9-9-9-9-9-9-9-|
D----------------------------------------|
A-7-7-9-9-10-10-12-\---------------------|
E----------------------------------------|

Outro

G---------------------------------|
D---------------------------------|
A-7-7-7-7-7-7-7-7-9-9-9-9-9-9-9-9-|
E---------------------------------|

G-------------------------------------------------|
D-------------------------------------------------|
A-10-10-10-10-10-10-10-10-12-12-12-12-12-12-12-12-|
E-------------------------------------------------|

G----------|
D----------|
A-7\-------|
E----------|

Order played

Intro
Verse 2x
Re-Intro
Verse 2x
Chorus
Brdige
Re-Intro 2(don't play this twice)
Chorus
Outro
            
Submit corrections



        Green Disease lessons Hard to play? Try these video lessons and learn fast Green Disease lessons
        
↑ Back to top | Tablatures and chords for acoustic guitar and electric guitar, ukulele, drums are parodies/interpretations of the original songs. You may use it for private study, scholarship, research or language learning purposes only