» » »

Peaches - Inch Bass

Artists:  A B C D E F G H I J K L M N O P Q R S T U V W X Y Z # 

Inch Bass

(ver. 1) Click to play this song!
Peaches
 Rating:
4/5 (4 votes)


 Inch lessons Tabs too difficult? Try these video lessons and learn fast
 
                
really simple bass line that is repeated the entire song except for the beginning where 
is a small difference

(00:00 - 00:13)
g ----------------------------------------------------------|
d ----------------------------------------------------------|
a ---6--6--6--6--6--6--6--9--9--4--4--4--4--4---------------| (x4)
e ----------------------------------------------------------|

(00:14 - 00:28)
g -------------------------------------------------------------|
d -------------------------------------------------------------|
a ---6--6--6--6--6--6--6--6--9--9--4--4--4--4--4---------------| (x4)
e -------------------------------------------------------------|

(00:42 - 00:56)
g -------------------------------------------------------------|
d -------------------------------------------------------------|
a ---6--6--6--6--6--6--6--6--9--9--4--4--4--4--4---------------| (x4)
e -------------------------------------------------------------|

(1:11 - 1:54)
g -------------------------------------------------------------|
d -------------------------------------------------------------|
a ---6--6--6--6--6--6--6--6--9--9--4--4--4--4--4--- (x12-------|
e -------------------------------------------------------------|

(2:09 - 3:05)
g -------------------------------------------------------------|
d -------------------------------------------------------------|
a ---6--6--6--6--6--6--6--6--9--9--4--4--4--4--4--- (x16-------|
e -------------------------------------------------------------|

there is no bass at the end or inbetween the times in parenthesis
            
Submit corrections



        Inch lessons Hard to play? Try these video lessons and learn fast Inch lessons
        
↑ Back to top | Tablatures and chords for acoustic guitar and electric guitar, ukulele, drums are parodies/interpretations of the original songs. You may use it for private study, scholarship, research or language learning purposes only