» » »

Passenger - Underwater Bride Tabs

Artists:  A B C D E F G H I J K L M N O P Q R S T U V W X Y Z # 

Underwater Bride Tabs

(ver. 2) Click to play this song!
Passenger
 Rating:
4/5 (4 votes)

 Underwater Bride lessons Tabs too difficult? Try these video lessons and learn fast
 
                (Intro)
-------------------------------------------------------------------------------
                             Underwater Bride - Passenger
-------------------------------------------------------------------------------

Tuning: Standard

Capo 6

Song Structure:

Intro 
Verse 
Intro
Verse
Chorus
Intro
Verse 
Chorus
Coda 
Intro


Enjoy :)



Intro

e|-------------------------------------------------3p0-----------------------|
B|--------2-------2-------1-------1--------1-----------------3p1--------1----|
G|----0-------0-------0-------0--------0-------0---------0----------0--------|
D|------3-------3-------0-------0--------2-------2---------2----------2------|
A|-----------------------------------0-------0---------0----------0----------|
E|--1-------1-------3-------3------------------------------------------------|


e|-------------------------------------------------5p0-----------------------|
B|--------2-------2-------1-------1--------1-----------------3p1--------1----|
G|----0-------0-------0-------0--------0-------0---------0----------0--------|
D|------3-------3-------0-------0--------2-------2---------2----------2------|
A|-----------------------------------0-------0---------0----------0----------|
E|--1-------1-------3-------3------------------------------------------------|




Verses


e|---------------------------------------------------------------------------|
B|--------2-------2-------1-------1--------1--------1---------1----------1---|
G|----0-------0-------0-------0--------0-------0---------0----------0--------|
D|------3-------3-------0-------0--------2-------2---------2----------2------|
A|-----------------------------------0-------0---------0----------0----------|
E|--1-------1-------3-------3------------------------------------------------|

e|-------------------------------------------------3p0-----------------------|
B|--------2-------2-------1-------1--------1-----------------3p1--------1----|
G|----0-------0-------0-------0--------0-------0---------0----------0--------|
D|------3-------3-------0-------0--------2-------2---------2----------2------|
A|-----------------------------------0-------0---------0----------0----------|
E|--1-------1-------3-------3------------------------------------------------|

e|---------------------------------------------------------------------------|
B|--------2-------2-------1-------1--------1--------1---------1----------1---|
G|----0-------0-------0-------0--------0-------0---------0----------0--------|
D|------3-------3-------0-------0--------2-------2---------2----------2------|
A|-----------------------------------0-------0---------0----------0----------|
E|--1-------1-------3-------3------------------------------------------------|

e|-------------------------------------------------5p0-----------------------|
B|--------2-------2-------1-------1--------1-----------------3p1--------1----|
G|----0-------0-------0-------0--------0-------0---------0----------0--------|
D|------3-------3-------0-------0--------2-------2---------2----------2------|
A|-----------------------------------0-------0---------0----------0----------|
E|--1-------1-------3-------3------------------------------------------------|



Chorus


e|-----------------------------------------------------------------------|
B|--------0-------0-------0-------0--------1--------1--------1--------1--|
G|----0-------0-------0-------0--------0--------0--------0--------0------|
D|------0-------0-------0-------0--------2--------2--------2--------2----|
A|-----------------------------------3--------3--------3--------3--------|
E|--3-------3-------3--------3-------------------------------------------|

e|-----------------------------------------------------------------------|
B|--------0-------0-------0-------0--------1--------1--------1--------1--|
G|----1-------1-------1-------1--------2--------2--------2--------2------|
D|------0-------0-------0-------0--------3--------3--------3--------3----|
A|--2-------2-------2-------2--------------------------------------------|
E|-----------------------------------1--------1--------1--------1--------|

e|-----------------------------------------------------|
B|--------1-------1-------0-------0--------0--------0--|
G|----2-------2-------0-------0--------0--------0------|
D|------3-------3-------0-------0--------2--------2----|
A|-----------------------------------------------------|
E|--1-------1-------3-------3--------0--------0--------|



Coda


e|----------------------------------------------------------------------|
B|--------0-------0-------0-------0--------1-------1--------1--------1--|
G|----0-------0-------0-------0--------0-------0--------2--------2------| x3
D|------0-------0-------0-------0--------2-------2--------3--------3----|
A|-----------------------------------0-------0--------------------------|
E|--3-------3-------3-------3-------------------------1--------1--------|
            
Submit corrections


        Underwater Bride lessons Hard to play? Try these video lessons and learn fast Underwater Bride lessons
        
↑ Back to top | Tablatures and chords for acoustic guitar and electric guitar, ukulele, drums are parodies/interpretations of the original songs. You may use it for private study, scholarship, research or language learning purposes only