» » »

Passenger - Let Her Go Tabs

Artists:  A B C D E F G H I J K L M N O P Q R S T U V W X Y Z # 

Let Her Go Tabs

(ver. 2) Click to play this song!
Passenger
 Rating:
4.3/5 (26 votes)

 Let Her Go lessons Tabs too difficult? Try these video lessons and learn fast
 
                [Intro]

    G          Fmaj7                   G         Am             G

e|----0----- ----------------0-----------0------------------0-------------0-----|
B|--3---3-1- ------1---------1-------1-3---3-1------1-------1---3-------3---3-1-|
G|---------- --0h2-------2-------2---------0-0--0h2------2------------0-----0-0-|
D|---------- ------3-------3-------3----------------2-------2-------0-----------|
A|---------- -----------------------------------0-------0-----------------------|
E|---------- --1-------1-------1-------3------------------------3-------3-------|

               1 + & + 2 + & + 3 + & + 4 + & +  1 + & + 2 + & + 3 + & + 4 + & +


   Fmaj7                   G         Am                     G

e|------------------3p0-----------0----------------------0-----0-----|
B|------1---------1-------1-1h3---------1----------1-----1---3---3-1-|
G|--0h2-------2--------------------------------2-------2---------0-0-|
D|------3-------3-------3-------0-------2--------2-------2-----------|
A|-----------------------------------0-------0-------0---------------|
E|--1-------1-------1-------3--------------------------------3-------|

    1 + & + 2 + & + 3 + & + 4 + & +  1 + & + 2 + & + 3 + & + 4 + & +


   Fmaj7                   G         Am             G

e|----------------0-----------0------------------0-------------0-----|
B|------1---------1-------1-3---3-1------1-------1---3-------3---3-1-|
G|--0h2-------2-------2---------0-0--0h2------2------------0-----0-0-|
D|------3-------3-------3----------------2-------2-------0-----------|
A|-----------------------------------0-------0-----------------------|
E|--1-------1-------1-------3------------------------3-------3-------|

    1 + & + 2 + & + 3 + & + 4 + & +  1 + & + 2 + & + 3 + & + 4 + & +


   Fmaj7                   G         Am                     G

e|------------------3p0-----------0----------------------0-----------|
B|------1---------1-------1-1h3---------1----------1-----1---3-----0-|
G|--0h2-------2--------------------------------2-------2-------------|
D|------3-------3-------3-------0-------2--------2-------2-------0---|
A|-----------------------------------0-------0-------0---------------|
E|--1-------1-------1-------3--------------------------------3-------|

    1 + & + 2 + & + 3 + & + 4 + & +  1 + & + 2 + & + 3 + & + 4 + & +



Strumming (if you think the pattern as in eighth notes)

   D       D   U   D  U   D  U
   1   &   2   &   3  &   4  &


And sometimes

       U       U   D  U   D  U
   1   &   2   &   3  &   4  &


                      Start strumming or continue picking with easier pattern


[Chorus]
                      Fmaj7                    C
Well you only need the light when it's burning low
             G                      Am
Only miss the sun when it starts to snow
            Fmaj7                      C       G      G
Only know you love her when you let her go
                     Fmaj7                      C
Only know you've been high when you're feeling low
              G                       Am
Only hate the road when you're missin  home
              Fmaj7                      C        G    G
Only know you love her when you've let her go

And you let her go


[Interlude]
Am  Fmaj7  G   Em
Am  Fmaj7  G   G


[Verse 1]
Am                            Fmaj7
Staring at the bottom of your glass
        G                            Em
Hoping one day you will make a dream last
              Am               Fmaj7          G    G
The dreams come slow and they go so fast
   Am                         Fmaj7
You see her when you close your eyes
        G                           Em
Maybe one day you will understand why
              Am          Fmaj7         G   G
Everything you touch surely dies


[Chorus]
                      Fmaj7                    C
Well you only need the light when it's burning low
             G                      Am
Only miss the sun when it starts to snow
            Fmaj7                      C       G      G
Only know you love her when you let her go
                     Fmaj7                      C
Only know you've been high when you're feeling low
              G                       Am
Only hate the road when you're missin  home
              Fmaj7                      C        G    G
Only know you love her when you've let her go


[Verse 2]
Am                           Fmaj7
Staring at the ceiling in the dark
        G                    Em
Same old empty feeling in your heart
          Am                 Fmaj7       G    G
Love comes slow and it goes so fast
        Am                    Fmaj7
Well you see her when you fall asleep
               G                 Em
But to never to touch and never to keep
                         Am
Because you loved her too much
                 Fmaj7         G        G
And you dived too deep


[Chorus]
                      Fmaj7                    C
Well you only need the light when it's burning low
             G                      Am
Only miss the sun when it starts to snow
            Fmaj7                      C       G      G
Only know you love her when you let her go
                     Fmaj7                      C
Only know you've been high when you're feeling low
              G                       Am
Only hate the road when you're missin  home
              Fmaj7                      C        G    G
Only know you love her when you've let her go


[Bridge]
                Am
And you let her go
      Fmaj7     G
Ooooo ooooo ooooo0
 G             Am
And you let her go
       Fmaj7     G
Ooooooo ooooo ooooo
G            Am
And you let her go

Fmaj7    G     Em

Am       Fmaj7    G


[Chorus]
                      Fmaj7                    C
Well you only need the light when it's burning low
             G                      Am
Only miss the sun when it starts to snow
            Fmaj7                      C       G      G
Only know you love her when you let her go
                     Fmaj7                      C
Only know you've been high when you're feeling low
              G                       Am
Only hate the road when you're missin  home
              Fmaj7                      C        G    G
Only know you love her when you've let her go
            
Submit corrections


        Let Her Go lessons Hard to play? Try these video lessons and learn fast Let Her Go lessons
        
↑ Back to top | Tablatures and chords for acoustic guitar and electric guitar, ukulele, drums are parodies/interpretations of the original songs. You may use it for private study, scholarship, research or language learning purposes only