» » »

Passenger - Let Her Go Tabs

Artists:  A B C D E F G H I J K L M N O P Q R S T U V W X Y Z # 

Let Her Go Tabs

(ver. 1) Click to play this song!
Passenger
 Rating:
4.3/5 (23 votes)

 Let Her Go lessons Tabs too difficult? Try these video lessons and learn fast
 
                Capo 7

[Intro]

e|-----1--------------------------0-------------0-------------------------0--------|
B|--3-----3--1-------1----------------1------3-----3--1---------1-------------3----|
G|--------------0h2---------2-----------------------------0h2----------2-----------|
D|--------------------------------------------------------------2---------2------0-|
A|-------------------3---------3---------3-----------------0--------0--------------|
E|---------------1-------1------------1------1-----3--------------------------3----|

e|-----0-------------------------0--3p0------------0-------------------------------|
B|--3-----3--1-------1---------------------1h3-----------1-----------1-----1-------|
G|--------------0h2--------2--------------------0--------2-----------2-----2-------|
D|--------0----------------------------------------------------2-------------------|
A|-------------------3--------3---------3-------------0-----0-----0-----0----------|
E|--3------------1------1------------1------3--------------------------------------|
            
Submit corrections


        Let Her Go lessons Hard to play? Try these video lessons and learn fast Let Her Go lessons
        
↑ Back to top | Tablatures and chords for acoustic guitar and electric guitar, ukulele, drums are parodies/interpretations of the original songs. You may use it for private study, scholarship, research or language learning purposes only