» » »

Passenger - Let Her Go Bass

Artists:  A B C D E F G H I J K L M N O P Q R S T U V W X Y Z # 

Let Her Go Bass

(ver. 1) Click to play this song!
Passenger
 Rating:
4/5 (4 votes)
    Let Her Go lessons Tabs too difficult? Try these video lessons and learn fast
                This is not the exact song but hopefully it gives you an idea on how to play it!! 

There is a lot more hammer on's, pulloffs, slides etc to make it sound good but 
these sound like the correct base notes. 

Intro 
G|------------------------------------------------------------------|
D|------10-10-10-12-14-14-12-12--------10-10-10-12-14-14-14-12------|
A|------------------------------------------------------------------|
E|------------------------------------------------------------------|


Verse
G|-------------------------------------------------------------------|
D|-------------------------------------------------------------------|
A|---7~--7--4~--4-5~---5----2--2~------------------------------------|
E|-------------------------------------------------------------------|

G|-------------------------------------------------------------------|
D|-------------------------------------------------------------------|
A|---7~----7--4~---4-5~---5-5----------------------------------------|
E|-------------------------------------------------------------------|

Chorus
G|------------------------------------------------------------------|
D|------------------------------------------------------------------|
A|---3---3-----------5---5---/---7---7------------------------------|
E|------------3---3-------------------------------------------------|

G|------------------------------------------------------------------|
D|------------------------------------------------------------------|
A|---3---3-----------0--5---5-5-------------------------------------|
E|------------3---3-------------------------------------------------|

Outro
G|--------------------------------------------------------------------|
D|--------------------------------------------------------------------|
A|---3~--------------5~---------7~------3~----------------5~----------|
E|------------3~------------------------------------3~----------------|
            
Submit corrections

↑ Back to top | Tablatures and chords for acoustic guitar and electric guitar, ukulele, drums are parodies/interpretations of the original songs. You may use it for private study, scholarship, research or language learning purposes only