» » »

Parokya Ni Edgar - Para Sayo Bass

Artists:  A B C D E F G H I J K L M N O P Q R S T U V W X Y Z # 

Para Sayo Bass

(ver. 1) Click to play this song!
Parokya Ni Edgar
 Rating:
4/5 (4 votes)


 Para Sayo lessons Tabs too difficult? Try these video lessons and learn fast
 
                Para Sayo
Prokya ni edgar

Whew Arvin e2 na ang tab

Intro 
G|-------4-2-1-|-6-8-6--4-2-1-|-2-4-2--------|-2-4-2--4-2-1-|
D|-2-4-2-------|--------------|--------2-4-2-|--------------|
A|-------------|--------------|--------------|--------------|
E|-------------|--------------|--------------|--------------|

G|-------4-2-1-|-6-8-6--4-2-1-|-2-4-2--------|-2-4-2--4-6-4-4-|
D|-2-4-2-------|--------------|--------2-4-2-|----------------|
A|-------------|--------------|--------------|----------------|
E|-------------|--------------|--------------|----------------|

Verse1 2x
G|----------------------------------------------------------|
D|--------------------------------------------7h9p7-7h9p7-7-|
A|-7(8x)-7-9-7--4(8x)-4-6-4---------------------------------|
E|--------------------------4(8x)-4-5-4--5(8x)--------------|

Chorus1
G|------------|-------------------------------------------|
D|------------|-------------------------------------------|
A|------------|-7-7-------4-4-------------7-7---4-4-------|
E|------------|------7-7-------4-4---5-5--------------7-7-|

G|---------------------------|
D|---------------------------|
A|-7(16)--4(16)--------------|
E|--------------4(16)--5(16)-|

Verse2 
G|----------------------------------------------------------|
D|--------------------------------------------7h9p7-7h9p7-7-|
A|-7(8x)-7-9-7--4(8x)-4-6-4---------------------------------|
E|--------------------------4(8x)-4-5-4--5(8x)--------------|

G|-------9-8-6-----------|-------6-4-2-----------|
D|-------------9-7-6-----|-------------6-4-2-----|
A|-7-9-7-------------9-7-|-4-6-4-------------6-4-|
E|-----------------------|-----------------------|

G|----------------------------------|
D|--------------------7h9p7-7h9p7-7-|
A|----------------------------------|
E|-4(8x)-4-5-4--5(8x)---------------|

G|-----------------------------------------------------------|
D|---------------------------------------------7h9p7-7h9p7-7-|
A|-7(8x)-7-9-7--4(8x)-4-6-4----------------------------------|
E|---------------------------4(8x)-4-5-4--5(8x)--------------|

Chorus2
G|------------|-------------------------------------------|
D|------------|-------------------------------------------|
A|------------|-7-7-------4-4-------------7-7---4-4-------|
E|------------|------7-7-------4-4---5-5--------------7-7-|

G|---------------------------|
D|---------------------------|
A|-7(16)--4(16)--------------|
E|--------------4(16)--5(16)-|2x

Verse3
G|-----------6-8-9-9-8-6----------|-----------4-6-------------------|
D|----6--7-9-------------9-7-6----|-----4-6-7-----7-6-4-------------|
A|-7-9------------------------9-7-|-4-6-----------------6-4-6-7-6-4-|
E|--------------------------------|---------------------------------|

G|-----------------------|-----------------------|
D|-----------4-6-4-------|-----------4-6-7-------|
A|-----4-4-6------6-4----|-----4-6-7------7-6----|
E|-4-5---------------5-4-|-5-7----------------7-5|

Chorus3
G|------------|-------------------------------------------|
D|------------|-------------------------------------------|
A|------------|-7-7-------4-4-------------7-7---4-4-------|
E|------------|------7-7-------4-4---5-5--------------7-7-|

G|---------------------------|
D|---------------------------|
A|-7(16)--4(16)--------------|
E|--------------4(16)--5(16)-|2x

Outro 2x
G|----------------------------------------------|
D|----------------------------------------------|
A|-7-7-7-7-9-9-9-9-7-9-7--4-4-4-4-6-6-6-6-4-6-4-|
E|----------------------------------------------|

G|---------------------------------------------------------|
D|----------------------------------------7h9p7-7h9p7-7--7-|
A|---------------------------------------------------------|
E|-4-4-4-4-5-5-5-5-4-5-4--5-5-5-5-7-7-7-7------------------|  

Ends with E
G|---------|
D|---------|
A|-7-------|
E|---------|  
            
Submit corrections



        Para Sayo lessons Hard to play? Try these video lessons and learn fast Para Sayo lessons
        
↑ Back to top | Tablatures and chords for acoustic guitar and electric guitar, ukulele, drums are parodies/interpretations of the original songs. You may use it for private study, scholarship, research or language learning purposes only