» » »

Parokya Ni Edgar - Ordertaker Bass

Artists:  A B C D E F G H I J K L M N O P Q R S T U V W X Y Z # 

Ordertaker Bass

(ver. 1) Click to play this song!
Parokya Ni Edgar
 Rating:
4/5 (4 votes)


 Ordertaker lessons Tabs too difficult? Try these video lessons and learn fast
 
                Note:this tab is not realy exact...sorry for the inconvenience
     and it is easy to use five string bass...

Legends:
s-slap

Intro:

  s   s s s s s
|-------------------------------------|
|-------------------------------------|
|-----------------3-3-3-3-3-2-2-2-2-2-| 2x
|-------------------------------------|
|-2---5-5-4-4-2-----------------------|


|--------------------------------------------------|
|--------------------------------------------------|
|---------------------------3-3-3-3-3-2-2-2-2-2----|
|--------------------------------------------------|
|--5-4-2-5-4-2-5-4-2-5-4-2-------------------------|
   s s s s s s s s s s s s

|--------------------------------------------|
|--------------------------------------------|
|------------------3-3-3-3-3-2-2-2-2-2-------|
|--------------------------------------------|
|-2---5-5-4-4-2------------------------------|
  s   s s s s s

|---------------------------------------------------------------------|
|------------------5-5-5-5--------------------------------------------|
|--7-7-7-7-7-7-7-7---------5-5-5-5-7-7-7-7-7-7-7-7-3-3-3-3-2-2-2-2----|
|---------------------------------------------------------------------|
|---------------------------------------------------------------------|

Verse:
|---------------------------------------------------------------------|
|---------------------------------------------------------------------|
|---------------------------------------------------------------------|
|---------------------------------------------------------------------|
|--2-2-----2-2-2-2-2-2-2-1-1----------------1-1-1-1-1-1-1-2-2---------|
   s s     s s s s s s s s s                s s s s s s s s s

|---------------------------------------------------------------------|
|---------------------------------------------------------------------|
|---------------------------------------------------------------------|
|---------------------------------------------------------------------|
|-----2-2-2-2-2-2-2-1-1---------------1-1-1-1-1-1-1-2-2---------------|
      s s s s s s s s s               s s s s s s s s s

|---------------------------------------------------------------------|
|---------------------------------------------------------------------|
|---------------------------------------------------------------------|
|---------------------------------------------------------------------|
|-----2-2-2-2-2-2-2-1-1---------------1-1-1-1-1-1-1-2-2---------------|
      s s s s s s s s s               s s s s s s s s s

|---------------------------------------------------------------------|
|---------------------------------------------------------------------|
|---------------------------------------------------------------------|
|---------------------------------------------------------------------|
|-----2-2-2-2-2-2-2-1-1---------------1-1-1-1-1-1-1-------------------|
      s s s s s s s s s               s s s s s s s

Refrain:
|--------------------------------------------|
|--------------------------------------------|
|------------------3-3-3-3-3-2-2-2-2-2-------| 2x
|--------------------------------------------|
|-2---5-5-4-4-2------------------------------|
  s   s s s s s

|--------------------------------------------------|
|--------------------------------------------------|
|---------------------------3-3-3-3-3-2-2-2-2-2----|
|--------------------------------------------------|
|--5-4-2-5-4-2-5-4-2-5-4-2-------------------------|
   s s s s s s s s s s s s


Interlude:
|---------------------------------------------------------------------|
|------------------5-5-5-5--------------------------------------------|
|--7-7-7-7-7-7-7-7---------5-5-5-5-7-7-7-7s9-9-7-3-3-3-3-2-2-2-2------|
|---------------------------------------------------------------------|
|---------------------------------------------------------------------|

Verse:
|-------------------------------------------------------------------|
|-------------------------------------------------------------------|
|-------------------------------------------------------------------|
|-------------------------------------------------------------------|
|--2-2-----2-2-2-2-2-2-2-1-1----------------1-1-1-1-1-1-1-2-2-------|
   s s     s s s s s s s s s                s s s s s s s s s

|---------------------------------------------------------------------|
|---------------------------------------------------------------------|
|---------------------------------------------------------------------|
|---------------------------------------------------------------------|
|-----2-2-2-2-2-2-2-1-1---------------1-1-1-1-1-1-1-2-2---------------|
      s s s s s s s s s               s s s s s s s s s

|---------------------------------------------------------------------|
|---------------------------------------------------------------------|
|---------------------------------------------------------------------|
|---------------------------------------------------------------------|
|-----2-2-2-2-2-2-2-1-1---------------1-1-1-1-1-1-1-2-2---------------|
      s s s s s s s s s               s s s s s s s s s

|---------------------------------------------------------------------|
|---------------------------------------------------------------------|
|---------------------------------------------------------------------|
|---------------------------------------------------------------------|
|-----2-2-2-2-2-2-2-1-1---------------1-1-1-1-1-1-1-------------------|
      s s s s s s s s s               s s s s s s s

Refrain:
|--------------------------------------------|
|--------------------------------------------|
|------------------3-3-3-3-3-2-2-2-2-2-------| 2x
|--------------------------------------------|
|-2---5-5-4-4-2------------------------------|
  s   s s s s s

|--------------------------------------------------|
|--------------------------------------------------|
|---------------------------3-3-3-3-3-2-2-2-2-2----|
|--------------------------------------------------|
|--5-4-2-5-4-2-5-4-2-5-4-2-------------------------|
   s s s s s s s s s s s s

Fast part:
|------------------------------------------------------------------------|
|------------------------------------------------------------------------|
|-7-7-7-7-7-7-7-7-6-6-6-6-6-6-6-6-9-9-9-9-9-9-9-9-12-12-12-12-12-12-12-12|4x
|------------------------------------------------------------------------|
|------------------------------------------------------------------------|

|----------------------------------------------|
|----------------------------------------------|
|---7---7-7------3---3-3-------------3---3-3---|4x
|----------------------------------------------|
|--------------------------5---5-5-------------|

then bass becames silent for a while


|---------------------------------------------------|
|---------------------------------------------------|
|---------------------------------------------------|
|---------------------------------------------------|
|-5-4-2-5-4-2-5-4-2-5-4-2-5-4-2-5-4-2-5-4-2-5-4-2---|
  s s s s s s s s s s s s s s s s s s s s s s s s

Refrain:
|--------------------------------------------|
|--------------------------------------------|
|------------------3-3-3-3-3-2-2-2-2-2-------| 2x
|--------------------------------------------|
|-2---5-5-4-4-2------------------------------|
  s   s s s s s

|--------------------------------------------------|
|--------------------------------------------------|
|---------------------------3-3-3-3-3-2-2-2-2-2----|
|--------------------------------------------------|
|--5-4-2-5-4-2-5-4-2-5-4-2-------------------------|
   s s s s s s s s s s s s

|---------------------------------------------------|
|---------------------------------------------------|
|---------------------------------------------------|2x
|---------------------------------------------------|
|-2-2-2-2-4-5-5-----2-2-2-2-4-5-5-------------------|
  s s s s s s s     s s s s s s s


__________________END_________________

sorry but this is my first tabb... hey im a begginer...

\m/
            
Submit corrections



        Ordertaker lessons Hard to play? Try these video lessons and learn fast Ordertaker lessons
        
↑ Back to top | Tablatures and chords for acoustic guitar and electric guitar, ukulele, drums are parodies/interpretations of the original songs. You may use it for private study, scholarship, research or language learning purposes only