» » »

Parokya Ni Edgar - Kayang-Kaya Tabs

Artists:  A B C D E F G H I J K L M N O P Q R S T U V W X Y Z # 

Kayang-Kaya Tabs

(ver. 1) Click to play this song!
Parokya Ni Edgar
 Rating:
4/5 (4 votes)
    Kayang-Kaya lessons Tabs too difficult? Try these video lessons and learn fast
                Tuning:standard

Solo:

e|-------5-7-8fb-8-7----------------------9-----------7-7----|
B|-----5-------------10-9-10-7-----7-9-10---7-10-9-10--------|
G|-4/6-------------------------9-9---------------------------|
D|-----------------------------------------------------------|
A|-----------------------------------------------------------|
E|-----------------------------------------------------------|

e|-9-10-10/12-9------7-------------------------------------|
B|--------------10-9---9-7-9-7---7-------------------------|
G|-----------------------------9---9-7-----5-4-------------|
D|-------------------------------------7/9-----7-----------|
A|---------------------------------------------------------|
E|---------------------------------------------------------|
                                 [two times]
e|--------------------------------------------------------|
B|--------------------------------------------------------|
G|-------5m-7m-4m-5m-7m-5m-7m-9m----6-7-9-----------------|
D|-5m-7m--------------------------7-------7---------------|
A|--------------------------------------------------------|
E|--------------------------------------------------------|

e|--------------7-9-7-----9-10-10/12-9-----------9-10----|
B|------10-9-10-------10---------------10-----10---------|
G|-7/11-----------------------------------9hb------------|
D|-------------------------------------------------------|
A|-------------------------------------------------------|
E|-------------------------------------------------------|

e|-9------------9-9h10-9--------------------------------|
B|---10------10----------10/12-10-----------------------|
G|------9--9----------------------9bslow/---------------|
D|------------------------------------------------------|
A|------------------------------------------------------|
E|------------------------------------------------------|

after solo continue:

e|---------------------------------|
B|-9/10-9-7-9-9-10-10/12-12/13b----|
G|---------------------------------|
D|---------------------------------|
A|---------------------------------|
E|---------------------------------|

e|---------------------------------|
B|-9/10-9-7-9-9-10-----------------|
G|-----------------9~/-------------|
D|---------------------------------|
A|---------------------------------|
E|---------------------------------|

e|-----------------10-9~-----------|
B|-9/10-9-7-9-9-10-----------------|
G|---------------------------------|
D|---------------------------------|
A|---------------------------------|
E|---------------------------------|

e|------------------------------|
B|-9/10-9-7-9-9-10--------------|
G|-----------------9-9~/--------|
D|------------------------------|
A|------------------------------|
E|------------------------------|

yan lang enjoy po kayo lahat!!
            
Submit corrections

↑ Back to top | Tablatures and chords for acoustic guitar and electric guitar, ukulele, drums are parodies/interpretations of the original songs. You may use it for private study, scholarship, research or language learning purposes only