» » »

Parokya Ni Edgar - Halaga Intro And Tabs

Artists:  A B C D E F G H I J K L M N O P Q R S T U V W X Y Z # 

Halaga Intro And Tabs

(ver. 1) Click to play this song!
Parokya Ni Edgar
 Rating:
4/5 (4 votes)
    Halaga Intro And lessons Tabs too difficult? Try these video lessons and learn fast
                Hi! My name is jeffrey and i'm 13yrs old. This is my tab of halaga so enjoy.
intro (effect: distortion)
e---------0-2-3-2-0-2---------------5-3-2-3-2---------------
b---3---3-------------3-----------3-----------3---3s5--3-2-3
g-----2-----------------2-----2s4---------------2-----------
d-----------------------------------------------------------
a-----------------------------------------------------------
e-----------------------------------------------------------

e-----------2-3-2-0-2---------------------
b-------3-5-----------3---------3s5--3-2-3
g---2-4-----------------2-----2-----------
d-----------------------------------------
a-----------------------------------------
e-----------------------------------------
background lead (effect: distortion)
e-----------2-3-2-0-2--------------------------0-2-3-2-0-2----
b-------3-5-----------3---------3s5--3-2-3---3-------------3--
g---2-4-----------------2-----2------------2-----------------2
d-------------------------------------------------------------
a-------------------------------------------------------------
e-------------------------------------------------------------

e---------5--3-2-3-2---------------
b-------3------------3---3s5--3-2-3
g---2s4----------------2-----------
d----------------------------------
a----------------------------------
e----------------------------------

solo (effect: distortion)
e-----------------------------------------------------
b---8s10-10-10-10-8-7-8--8-7-8s10---8-7----7----------
g---------------------------------------9b----9b-7---7
d--------------------------------------------------9--
a-----------------------------------------------------
e-----------------------------------------------------

e---------------17-------------------------------------------
b--------15-17b----17b---17b-15-17-15-14---------------------
g---14s16---------------------------------9s11-11-11-11-9-7-9
d------------------------------------------------------------
a------------------------------------------------------------
e------------------------------------------------------------

e--------
b--------
g---7-6-4
d--------
a--------
e--------
            
Submit corrections

↑ Back to top | Tablatures and chords for acoustic guitar and electric guitar, ukulele, drums are parodies/interpretations of the original songs. You may use it for private study, scholarship, research or language learning purposes only