» » »

Paramore - Playing God Bass

Artists:  A B C D E F G H I J K L M N O P Q R S T U V W X Y Z # 

Playing God Bass

(ver. 1) Click to play this song!
Paramore
 Rating:
4/5 (4 votes)


 Playing God lessons Tabs too difficult? Try these video lessons and learn fast
 
                ----------------------------------------------------------------------------
			     PLAYING GOD - Paramore
----------------------------------------------------------------------------

Tuning: standard

Verse "can't make my own decisions.."
G|-------------------------------------------------------------------|
D|-------------------------------------------------------------------|
A|44-4-44-4-44-422-244-4-44-4-44-422----------------------------2/666|
E|----------------------------------400-0-00-0-00-022-4-00-0-00------|

"so you say that i've been changing"
G|-------------------------------------------------------------------|
D|-------------------------------------------------------------------|
A|44-4-44-4-44-422-244-4-44-4-44-422----------------------------466-6|
E|----------------------------------400-0-00-0-00-022-4-00-0-00------|

pre-chorus "whoa oh..."
G|----------------|
D|----------------|
A|00000000-22222--|
E|----------------|

chorus "you don't have to believe me"
G|------------------------------------------------------------------------------|
D|------------------------------------------------------------------------------|
A|------------------44-4-44-4-44-4-44-00-0-00-022-2-22-2---------00-0-00-0-00-02|
E|00-0-00-0-00-0-00-------------------------------------44-4-44-4---------------|

Verse "if god's the game you're playing"
G|-------------------------------------------------------------------|
D|-------------------------------------------------------------------|
A|44-4-44-4-44-422-244-4-44-4-44-422----------------------------2/666|
E|----------------------------------400-0-00-0-00-022-4-00-0-00------|

"it's just my humble opinion"
G|-------------------------------------------------------------------|
D|--------------2-1--------------------------------------------------|
A|44-4-44-4--44-----2--4-44-4-44-422----------------------------466-6|
E|---------4---------4--------------400-0-00-0-00-022-4-00-0-00------|

pre-chorus "whoa oh..."
G|----------------|
D|----------------|
A|00000000-22222--|
E|----------------|

chorus "you don't have to believe me"
G|------------------------------------------------------------------------------|
D|------------------------------------------------------------------------------|
A|------------------44-4-44-4-44-4-44-00-0-00-022-2-22-2---------00-0-00-0-00-02|
E|00-0-00-0-00-0-00-------------------------------------44-4-44-4---------------|

G|------------------------------------------------------------------------------------|
D|------------------------------------------------------------------------------------|
A|------------------44-4-44-4-44-4-44-00-0-00-022-2-22-2---------00-0-00-0-00-02222222|
E|00-0-00-0-00-0-00-------------------------------------44-4-44-4---------------------|

bridge right after chorus "i'll point you to the mirror.."
G|----------------------------------|
D|----------------------------------|
A|00000000-22222222-44444444--------|
E|--------------------------44444444|x3

G|--------------------------------------|
D|--------------------------------------|
A|00000000-22222222-44444444-66666666---|
E|------------------------------------0~|

chorus "I know you won't believe me.."
G|------------------------------------------------------|
D|------------------------------------------------------|
A|4444444444444444-00000000-22222222---------244-222222-|
E|----------------------------------444444444-----------|

outro "i know you won't believe me
G|------------------------------------------------------------------------------|
D|------------------------------------------------------------------------------|
A|------------------44-4-44-4-44-4-44-00-0-00-022-2-22-2---------00-0-00-0-00-02|
E|00-0-00-0-00-0-00-------------------------------------44-4-44-4---------------|
            
Submit corrections



        Playing God lessons Hard to play? Try these video lessons and learn fast Playing God lessons
        
↑ Back to top | Tablatures and chords for acoustic guitar and electric guitar, ukulele, drums are parodies/interpretations of the original songs. You may use it for private study, scholarship, research or language learning purposes only