» » »

Paramore - I Caught Myself Bass

Artists:  A B C D E F G H I J K L M N O P Q R S T U V W X Y Z # 

I Caught Myself Bass

(ver. 2) Click to play this song!
Paramore
 Rating:
4/5 (4 votes)


 I Caught Myself lessons Tabs too difficult? Try these video lessons and learn fast
 
                ==========================
I Caught Myself - Paramore
==========================


Intro: The bass starts with the drums
|---------------------------------|
|--------------2/7777777777777777-|
|---------------------------------|
|---------------------------------|
(these are 11's)
|---------------------------|
|-1111111111111111-22222222-|
|---------------------------|
|---------------------------|

|------------------------------------|
|-7777777777777777-44444444-22222222-|
|------------------------------------|
|------------------------------------|
(these are 11's)
|--------------------------------------------|
|-7777777777777777-1111111111111111-22222222-|
|--------------------------------------------|
|--------------------------------------------|

|------------------------------------|
|-7777777777777777-44444444-22222222-|
|------------------------------------|
|------------------------------------|

Pre-Chorus:
|---------------|
|---------------|
|-0~------------|
|---------------|

Chorus:
|----------------------------------|
|----------------------------------|
|-00000000000000-------------------| x4
|----------------22222222-00000000-|

Second Verse:

|----------------------------------|
|----------------------------------|
|-00000000000000-------------------| x2
|----------------22222222-00000000-|

Pre-Chorus:
|---------------|
|---------------|
|-0~------------|
|---------------|

Chorus:
|----------------------------------|
|----------------------------------|
|-00000000000000-------------------| x4
|----------------22222222-00000000-|

Solo:
|------------------------------------|
|---------------2--------------------|
|-00000000000002-2-44444444----------|
|---------------------------00000000-|

|------------------------------|
|------------------------------|
|-00000000000000---------------|
|----------------22222222-0~~--|

Bridge:
|-------------------------|
|-------------------------|
|-0~----0~----0~----0~----|
|-------------------------|

Build-Up: (these are 11's)
|--------------------------------------------|
|-7777777777777777-1111111111111111-22222222-|
|--------------------------------------------|
|--------------------------------------------|

|------------------------------------|
|-7777777777777777-44444444-xxxxxxxx-|
|------------------------------------|
|------------------------------------|

Last Chorus:
|---------------------------------------|
|---------------2/6/2-------------------|
|---------------------44444444-00000000-|
|-00000000-22222------------------------|

|-----------------------------------------|
|---------------2/6/2---------------------|
|---------------------44444444--22222-----|
|-00000000-22222---------------------12/0-|

|----------------------------------|
|-------------2/6/2----------------|
|------------------4-4-4-4-0-0-0-0-|
|0-0-0-0-2-2-2---------------------|

|----------------------------------|
|-------------2/6/2----------------|
|------------------4-4-4-4--22222--|
|0-0-0-0-2-2-2---------------------|

wooooo faq yeaah i can play i caught myself by paramore
            
Submit corrections



        I Caught Myself lessons Hard to play? Try these video lessons and learn fast I Caught Myself lessons
        
↑ Back to top | Tablatures and chords for acoustic guitar and electric guitar, ukulele, drums are parodies/interpretations of the original songs. You may use it for private study, scholarship, research or language learning purposes only