» » »

Paramore - For A Pessimist Im Pretty Optimistic Bass

Artists:  A B C D E F G H I J K L M N O P Q R S T U V W X Y Z # 

For A Pessimist Im Pretty Optimistic Bass

(ver. 2) Click to play this song!
Paramore
 Rating:
4/5 (4 votes)


 For A Pessimist Im Pretty Optimistic lessons Tabs too difficult? Try these video lessons and learn fast
 
                Drop D tuning.
For Scott. :)


Intro x2
G|---------------------------------------------------------|
D|---------------------------------------------------------|
A|-14(x3)--12(x4)--9(x3)--8(x4)--14(x3)-12(x4)--16(x8)-----|
D|---------------------------------------------------------|
 Verse
G|-------------------------------------------------------------------------|
D|-------------------------------------------------------------------------|
A|---22222222-22222222----22222222-22222222---------------------------4-4--|
D|4~-------------------4~------------------44-444-44-6-66-666-666-1-1------|
 Pre-Chorus x2
G|-------------------------------------------------------------------------|
D|-------------------------------------------------------------------------|
A|---6(As nessecary)-------------------------------------------------------|
D|-------------------------------------------------------------------------|
 Chorus
G|-----------------------------------------------------------------|
D|-----------------------------------------------------------------|
A|-22222222-444444444-66666666--22222222-44444444------------------|
D|------------------------------------------------66666666---------|
 Chorus (continued)
G|-----------------------------------------------------------------------|
D|-----------------------------------------------------------------------|
A|---22222222-444444444-66666666--22222222-44444444-------4444444444-----|
D|--------------------------------------------------4444-----------------|

Pre-Verse
G|---------------------------------------------------------|
D|---------------------------------------------------------|
A|-14(x3)--12(x4)--9(x3)--8(x4)--14(x3)-12(x4)--16(x8)-----|
D|---------------------------------------------------------|

 Verse
G|-------------------------------------------------------------------------|
D|-------------------------------------------------------------------------|
A|---22222222-22222222----22222222-22222222---------------------------4-4--|
D|4~-------------------4~------------------44-444-44-6-66-666-666-1-1------|

Pre-Chorus x2
G|-------------------------------------------------------------------------|
D|-------------------------------------------------------------------------|
A|---6(As nessecary)-------------------------------------------------------|
D|-------------------------------------------------------------------------|

Chorus
G|-----------------------------------------------------------------|
D|-----------------------------------------------------------------|
A|-22222222-444444444-66666666--22222222-44444444------------------|
D|------------------------------------------------66666666---------|
 Chorus (continued)
G|-----------------------------------------------------------------------|
D|-----------------------------------------------------------------------|
A|---22222222-444444444-66666666--22222222-44444444-------4444444444-----|
D|--------------------------------------------------4444-----------------|

Pre-Verse
G|---------------------------------------------------------|
D|---------------------------------------------------------|
A|-14(x3)--12(x4)--9(x3)--8(x4)--14(x3)-12(x4)--16(x8)-----|
D|---------------------------------------------------------|


Bridge
G|-----------------------------------------------------|
D|-----------------------------------------------------|
A|-----------------------------------------------------|
D|-1111111-3333-4444-9999-8888-6666-3333---------------|

G|-----------------------------------------------------|
D|-----------------------------------------------------|
A|-----------------------------------------------------|
D|--1111-3333-4444-6666-9999-8888-6666-4444--3333------|

Chorus
G|-----------------------------------------------------------------|
D|-----------------------------------------------------------------|
A|-22222222-444444444-66666666--22222222-44444444------------------|
D|------------------------------------------------66666666---------|
 Chorus (continued)
G|-----------------------------------------------------------------------|
D|-----------------------------------------------------------------------|
A|---22222222-444444444-66666666--22222222-44444444-------4444444444-----|
D|--------------------------------------------------4444-----------------|

Chorus
G|-----------------------------------------------------------------|
D|-----------------------------------------------------------------|
A|-22222222-444444444-66666666--22222222-44444444------------------|
D|------------------------------------------------66666666---------|
 Chorus (continued)
G|-----------------------------------------------------------------------|
D|-----------------------------------------------------------------------|
A|---22222222-444444444-66666666--22222222-44444444-------4444444444-----|
D|--------------------------------------------------4444-----------------|

Well done, you've just played it. :)
            
Submit corrections



        For A Pessimist Im Pretty Optimistic lessons Hard to play? Try these video lessons and learn fast For A Pessimist Im Pretty Optimistic lessons
        
↑ Back to top | Tablatures and chords for acoustic guitar and electric guitar, ukulele, drums are parodies/interpretations of the original songs. You may use it for private study, scholarship, research or language learning purposes only