» » »

Paramore - Crushcrushcrush Bass

Artists:  A B C D E F G H I J K L M N O P Q R S T U V W X Y Z # 

Crushcrushcrush Bass

(ver. 2) Click to play this song!
Paramore
 Rating:
4/5 (4 votes)


 Crushcrushcrush lessons Tabs too difficult? Try these video lessons and learn fast
 
                Paramore - Crushcrushcrush

Having looked at the tabs others have done I felt I should submit one that was at least 
the correct tuning.

Intro
Gb|-----|
Db|-----|
Ab|-444-|
Db|-----|

Verse
Gb|----------------------------------|
Db|----------------------------------|
Ab|-55555555--------3333333355555303-|
Db|---------33333333-----------------|

Gb|----------------------------------|
Db|----------------------------------|
Ab|-55555555--------3333333333333333-|
Db|---------33333333-----------------|

Bridge
Gb|------------------------------------------------------------------|
Db|------------------------------------------------------------------|
Ab|-1-1-1-1-3-3-3-3-5-5-5-5-5-578753-1-1-1-1-3-3-3-3-5-5-5-535-5-5-5-|
Db|------------------------------------------------------------------|

Gb|-----------------------------------|
Db|-----------------------------------|
Ab|-11-111-100-00---------------------|
Db|------------------0=======-0======-|

Chorus
Gb|------------------------------------------------|
Db|------------------------------------------------|
Ab|------3====-1----3====------3====-1111111133333-|
Db|-0-33---------00-------0-33---------------------|

Gb|-----------------------------------|
Db|-----------------------------------|
Ab|-------3-3-3-3-3-3-------3-3-3-444-|
Db|-0-0-0-------------0-0-0-----------|

Verse
Gb|----------------------------------|
Db|----------------------------------|
Ab|-55555555--------3333333355555303-|
Db|---------33333333-----------------|

Gb|----------------------------------|
Db|----------------------------------|
Ab|-55555555--------3333333333333333-|
Db|---------33333333-----------------|

Bridge
Gb|------------------------------------------------------------------|
Db|------------------------------------------------------------------|
Ab|-1-1-1-1-3-3-3-3-5-5-5-5-5-578753-1-1-1-1-3-3-3-3-5-5-5-535-5-5-5-|
Db|------------------------------------------------------------------|

Gb|-----------------------------------|
Db|-----------------------------------|
Ab|-11-111-100-00---------------------|
Db|------------------0=======-0======-|

Chorus
Gb|------------------------------------------------|
Db|------------------------------------------------|
Ab|------3====-1----3====------3====-1111111133333-|
Db|-0-33---------00-------0-33---------------------|

Interlude
Gb|----------|----------|----------|----------|----------|----------|
Db|----------|----------|----------|----------|----------|----------|
Ab|-----3-11\|-----3-11\|-----3-11\|-----3-11\|-----3-11\|-----3-11\|
Db|-0-3------|-0-3------|-0-3------|-0-3------|-0-3------|-0-3------|

Outro
Gb|-------------------------------------------------------------|
Db|-------------------------------------------------------------|
Ab|-----------3333-1111------33334444------3====-1111111133333--|
Db|-0000-3333-----------0000----------0-33----------------------|

Gb|-----------------------------------------------|
Db|-----------------------------------------------|
Ab|------3===-1-----3333------3====-1111111133333-|
Db|-0-33---------00------0-33---------------------|

Ending
Gb|-----------------------------------|
Db|-----------------------------------|
Ab|-55554444333322221111222233335-----|
Db|-----------------------------------|
            
Submit corrections



        Crushcrushcrush lessons Hard to play? Try these video lessons and learn fast Crushcrushcrush lessons
        
↑ Back to top | Tablatures and chords for acoustic guitar and electric guitar, ukulele, drums are parodies/interpretations of the original songs. You may use it for private study, scholarship, research or language learning purposes only