» » »

Paramore - All We Know Tabs

Artists:  A B C D E F G H I J K L M N O P Q R S T U V W X Y Z # 

All We Know Tabs

(ver. 2) Click to play this song!
Paramore
 Rating:
4.8/5 (21 vote)


 All We Know lessons Tabs too difficult? Try these video lessons and learn fast
 
                
Hayley: x4
e|--------------|
B|--------------|
G|-7--4--5------|
D|-7--4--5------|
A|-5--2--3------|
E|--------------|

Jason: (2:04)
e|-5~--3~--0-----0-----0-----|
B|-----------3-----3-----3---|
G|-------------0-----0-----0-|
D|---------------------------|
A|---------------------------|
E|---------------------------|

Josh: Harmonics (2:11)
e|-12*---------------|
B|-------------------|
G|----------5*-------|
D|------9*-----------|
A|-------------------|
E|-------------------|

Hayley and Jason: (x2)
e|-----------------------------------|
B|-----------------------------------|
G|-7777777-5-5-----------------------|
D|-7777777-5-5----22222222-4444444---|
A|-5555555-3-3----22222222-5555555---|
E|----------------00000000-2222222---|

Josh: Harmonics also (This wasn't what you wanted)
e|----------------|
B|----------5*----|
G|---5*-----------|
D|----------------|
A|----------------|
E|----------------|

Hayley and Jason: (x2)
e|--------------------------|
B|--------------------------|
G|-5555---------------------|
D|-5555----22222222-4444444-|
A|-3333----22222222-5555555-|
E|---------00000000-2222222-|

Josh's Solo:
e|----------------------------------------------------------------------|
B|----------------------------------------------------------------------|
G|----------------------------------------------------------------------|
D|-----------------------------------------------------1616161616161616-|
A|-------------------1717171717171717-1919191919191919------------------|
E|-19191919-17171717----------------------------------------------------|

e|----------1919191919-----------------------------1919191919--------------------|
B|-20202020------------171717171717171717-20202020-------------------------------|
G|------------------------------------------------------------191919191919191919-|
D|-------------------------------------------------------------------------------|
A|-------------------------------------------------------------------------------|
E|-------------------------------------------------------------------------------|

e|-------------------------------------------------------|
B|-17171717-1919191919-2020202020202020------------------|
G|--------------------------------------1616161616161616-|
D|-------------------------------------------------------|
A|-------------------------------------------------------|
E|-------------------------------------------------------|
            
Submit corrections



        All We Know lessons Hard to play? Try these video lessons and learn fast All We Know lessons
        
↑ Back to top | Tablatures and chords for acoustic guitar and electric guitar, ukulele, drums are parodies/interpretations of the original songs. You may use it for private study, scholarship, research or language learning purposes only