» » »

Papa Roach - I Almost Told You That I Loved You Bass

Artists:  A B C D E F G H I J K L M N O P Q R S T U V W X Y Z # 

I Almost Told You That I Loved You Bass

(ver. 1) Click to play this song!
Papa Roach
 Rating:
4/5 (4 votes)
    I Almost Told You That I Loved You lessons Tabs too difficult? Try these video lessons and learn fast
                ---------------------------------------------------------------------------
              papa roach - i almost told you that i loved you
---------------------------------------------------------------------------


Tuning: (D.A.D.G)


well its far from perfect but its better than nothing

NOTE, im not sure if the bass plays during the intro or the 0-1 parts
during the chorus, its completly up to you on how you wanna play it


intro

G|--------------------------------------------------------------------|
D|--------------------------------------------------------------------|
A|--------------------------------------------------------------------|
D|---2~~~~----0-2~~~~~~~~----0-2~~~~~~~~----0-2~~~~~~--3/0------------|


verse

G|--------------------------------------------------------------------|
D|--------------------------------------------------------------------|
A|--------7/------7/------7/------8/------5/------5/------5/-----8/---|
D|---2-2-----2-2-----2-2-----2-2-----0-0-----0-0-----0-0-----0-0------|

G|--------------------------------------------------------------------|
D|--------------------------------------------------------------------|
A|--------7/------7/------7/------8/------5/------5/------5/----------|
D|---2-2-----2-2-----2-2-----2-2-----0-0-----0-0-----0-0-----0-0------|


chorus

G|--------------------------------------------------------------------|
D|--------------------------------------------------------------------|
A|-----------333-333--------------------------333-333-----------------|
D|---222-222---------555-555-111-111--222-222---------555-555--0-1----|

G|--------------------------------------------------------------------|
D|--------------------------------------------------------------------|
A|-----------333-333--------------------------333-333-----------------|
D|---222-222---------555-555-111-111--222-222---------555-555-0-1-2/--|


verse

G|--------------------------------------------------------------------|
D|--------------------------------------------------------------------|
A|--------7/------7/------7/------8/------5/------5/------5/-----8/---|
D|---2-2-----2-2-----2-2-----2-2-----0-0-----0-0-----0-0-----0-0------|

G|--------------------------------------------------------------------|
D|--------------------------------------------------------------------|
A|--------7/------7/------7/------8/------5/------5/------5/----------|
D|---2-2-----2-2-----2-2-----2-2-----0-0-----0-0-----0-0-----0-0------|


chorus

G|--------------------------------------------------------------------|
D|--------------------------------------------------------------------|
A|-----------333-333--------------------------333-333-----------------|
D|---222-222---------555-555-111-111--222-222---------555-555--0-1----|

G|--------------------------------------------------------------------|
D|--------------------------------------------------------------------|
A|-----------333-333--------------------------333-333-----------------|
D|---222-222---------555-555-111-111--222-222---------555-555--0-1----|


brigde

G|--------------------------------------------------------------------|
D|--------------------------------------------------------------------|
A|---------------------------8/-------------------------8/------------|
D|---2222--2222--2222--2222-----0000--0000--0000--0000----------------|

G|--------------------------------------------------------------------|
D|--------------------------------------------------------------------|
A|---------------------------8/---------------------------------------|
D|---2222--2222--2222--2222-----0000--0000---0-0-0-0-0-0-0-0----------|


intro again

G|--------------------------------------------------------------------|
D|--------------------------------------------------------------------|
A|--------------------------------------------------------------------|
D|---0~~~~----2-0~~~~~~~~----2-0~~~~~~~~----2-0~~~~~~--2/0------------|


final chorus

G|--------------------------------------------------------------------|
D|--------------------------------------------------------------------|
A|-----------333-333--------------------------333-333-----------------|
D|---222-222---------555-555-111-111--222-222---------555-555--0-1----|

G|--------------------------------------------------------------------|
D|--------------------------------------------------------------------|
A|-----------333-333--------------------------333-333-----------------|
D|---222-222---------555-555-111-111--222-222---------555-555--0-1----|

G|--------------------------------------------------------------------|
D|--------------------------------------------------------------------|
A|-----------333-333--------------------------333-333-----------------|
D|---222-222---------555-555-111-111--222-222---------555-555--0-1----|

G|--------------------------------------------------------------------|
D|--------------------------------------------------------------------|
A|-----------333-333--------------------------333-333-----------------|
D|---222-222---------555-555-111-111--222-222---------555-555-0-1-2/--|
            
Submit corrections

↑ Back to top | Tablatures and chords for acoustic guitar and electric guitar, ukulele, drums are parodies/interpretations of the original songs. You may use it for private study, scholarship, research or language learning purposes only