» » »

Pantera - We'll Grind That Axe For A Long Time Bass

Artists:  A B C D E F G H I J K L M N O P Q R S T U V W X Y Z # 

We'll Grind That Axe For A Long Time Bass

(ver. 2) Click to play this song!
Pantera
 Rating:
4/5 (4 votes)


 We'll Grind That Axe For A Long Time lessons Tabs too difficult? Try these video lessons and learn fast
 
                "                              Pantera
                  We'll Grind That Axe For A long Time


Tuning: Standard
/ - slide up
() - Ghost note




intro
-----------|
-----------|
-----------|
-2-3-1-2-0-|



verse
----------------|
----------------|
----------------|
-4-5-2-3-0--0-0-|


!!!Every f**kin year it stays the same!!
--------------------------------------------------------------------------|
--------------------------------------------------------------------------|
-2-3-1-2-0-1--------------------------------------------------------------|
--------------4-5---3-4-2-3-1-2-1-0-0-0-0-0-0-0-0-1-1-0-1-1-0-1-1-0-1-1-0-|

chorus
--------------------|----------------------------|
--------------------|----------------------------|
--------------------|----------------------------|
-0-0-0-0-0-6-0-0-0-0|-5-5-0-8/-(5)--5-5-0-8/-(5)-|
!!we'll grind that axe for a long time!!
"            
Submit corrections



        We'll Grind That Axe For A Long Time lessons Hard to play? Try these video lessons and learn fast We'll Grind That Axe For A Long Time lessons
        
↑ Back to top | Tablatures and chords for acoustic guitar and electric guitar, ukulele, drums are parodies/interpretations of the original songs. You may use it for private study, scholarship, research or language learning purposes only