Home » P » Palace »

Palace - Live Well Tabs

Artists:  A B C D E F G H I J K L M N O P Q R S T U V W X Y Z # 

Live Well Tabs

(ver. 1) Click to play this song!
Palace
 Rating:
4.3/5 (20 votes)
                [Intro]
 
e|---------------------------------------------------------------------------|
B|----3-------3-------3-------3-------3-------3-------3----------------------|
G|--4---4---4---4---4---4---4---4---4---4---4---4---4---4--------------------|
D|5-------5-------5-------5-------5-------5-------5-------5------------------|
A|---------------------------------------------------------------------------|
E|---------------------------------------------------------------------------|
 
e|--------10/12-12--7--5\-0h2p0---0------------------------------------------|
B|--------10/12-----7--5\-------3---3--5--0----------------------------------|
G|---7---------------------------------------4-------------------------------|
D|/9---9---------------------------------------------------------------------| x2
A|---------------------------------------------------------------------------|
E|---------------------------------------------------------------------------|
 
 
[Verse 1]
 
e|---------------------------------------------------------------------------|
B|---------------------------------------------------------------------------|
G|----------------------9------------------------9---------------------------|
D|--------7h9p7---------------------7h9p7------------------------------------| x2
A|5--5-7/9-----------7------5--5-7/9-----------7-----------------------------|
E|3--3----------------------3--3---------------------------------------------|
 
e|--------10/12-12--7--5/-0h2p0---0------------------------------------------|
B|--------10/12-----7--5/-------3---3--5--0----------------------------------|
G|---7---------------------------------------4-------------------------------|
D|/9---9---------------------------------------------------------------------| x2
A|---------------------------------------------------------------------------|
E|---------------------------------------------------------------------------|
 
 
[Chorus]
 
e|---------------------------------------------------------------------------|
B|----7-----7-----7------------3-----3-----3---------------------------------|
G|--4-----4-----4-----4------4-----4--------------2--------------------------|
D|7-----7-----7-----7---7--4-----4-------4------0----------------------------|
A|-------------------------------------5------2------------------------------|
E|---------------------------------------------------------------------------|
 
e|--------------------------------------10-10-10-10-10-10--------------------|
B|----7-----7-----7------------8-----8--10-10-10-10-10-10--------------------|
G|--4-----4-----4-----4-7----9-----9----11-11-11-11-11-11--------------------|
D|7-----7-----7-----7------9-----9------12-12-12-12-12-12--------------------|
A|---------------------------------------------------------------------------|
E|---------------------------------------------------------------------------|
 
e|---------------------------------------------------------------------------|
B|-----10h12--10-------10-10----10-------------------------------------------|
G|-----------------9/11------11-11-11------7---------------------------------|
D|---------------------------------12---/9---9\7-7--7-5-4-5-4-2/4-4----------|
A|---------------------------------------------------------------------------|
E|---------------------------------------------------------------------------|
            
Submit corrections

↑ Back to top | Tablatures and chords for acoustic guitar and electric guitar, ukulele, drums are parodies/interpretations of the original songs. You may use it for private study, scholarship, research or language learning purposes only