» » »

Pagoda - Happy Song Tabs

Artists:  A B C D E F G H I J K L M N O P Q R S T U V W X Y Z # 

Happy Song Tabs

(ver. 1) Click to play this song!
Pagoda
 Rating:
4/5 (6 votes)


 Happy Song lessons Tabs too difficult? Try these video lessons and learn fast
 
                

Intro/Verse~
E|----------------------------------------------|
B|----------------------------------------------|
G|---2----2-----3----3-----2----2---------------|
D|---2---2-2----3---3-3----2---2-2--------------|
A|-0----0-----1----1-----0----0----3-3-3-3-3--2-|
E|---------------------------------1-1-1-1-1--0-|
Play this a few times with some palm muting


Pre-Pre-Chrous~
E|----------------------------------------------------|
B|----------------------------------------------------|
G|----------------------------------------------------|
D|----------------------------------------------------|
A|-6-6-6-6-6--3-3-3-3-3--2----6-6-6-6-6--3-3-3-3-3--2-|
E|-4-4-4-4-4--1-1-1-1-1--0----4-4-4-4-4--1-1-1-1-1--0-|
Play once with distortion


Pre-Chrous~
E|--------------------------------------------------------------|
B|--------------------------------------------------------------|
G|--------------------------------------------------------------|
D|-7-7-7---------------------7-7-7------------------------------|
A|-5-5-5-7-7-7-8-8-8-5-5-5---5-5-5-7-7-7-8-8-8-6666666666666666-|
E|-------5-5-5-6-6-6-3-3-3---------5-5-5-6-6-6-4444444444444444-|
Palm muting used. Then distortion at the end.

Chorus~
E|--------------------------|
B|--------------------------|
G|---2-----3----------------|
D|---2-----3------3-----2---|
A|-0---0-1---0----3-----2---|
E|--------------1---0-0---0-|
Repeat
            
Submit corrections



        Happy Song lessons Hard to play? Try these video lessons and learn fast Happy Song lessons
        
↑ Back to top | Tablatures and chords for acoustic guitar and electric guitar, ukulele, drums are parodies/interpretations of the original songs. You may use it for private study, scholarship, research or language learning purposes only