» » »

Ozzy Osbourne - You Looking At Me Looking At You Bass

Artists:  A B C D E F G H I J K L M N O P Q R S T U V W X Y Z # 

You Looking At Me Looking At You Bass

(ver. 1) Click to play this song!
Ozzy Osbourne
 Rating:
4/5 (4 votes)


 You Looking At Me Looking At You lessons Tabs too difficult? Try these video lessons and learn fast
 
                -------------------------------------------------------------------------------
			   You Looking At Me - Ozzy Osbourne
-------------------------------------------------------------------------------


Tuning:EADG

Intro
G|----------------------------------------------------------------------|
D|----------------------------------------------------------------------|
A|---------2-4-0--------0-------4-2-4--4--2--2-2--5--5-4-2-4-2---2------|
E|-0--0--0--------0-2-4---4-2-0--------------------------------5---5-4--|

Verse
G|--------------------------------------------------|
D|--------------------------2h4---------------2--2--|
A|----------------------2h4-------------------------|
E|-2--2-2-2--2-2-2--2-2---------2--2-2-2--2-2-------|

G|--------------------------2h4---------------------|
D|----------------------2h4-------------------------|
A|-2--2-2-2--2-2-2--2-2---------2--2-2-2--2-2-0-----|
E|-----------------------------------------------0--|

Pre-Chorus
G|----------------------------------------------------------|
D|---------------------------------4h6----------------------|
A|-------4h6--------------------4-------4--2-2-2-2-2-2-2-2--|
E|-4--2-------4--5--4--2--0--2------------------------------|

Chorus 1
G|------------------------------------------------|
D|------------------------------------------------|
A|---------2-4-0--------0-------4-2-4--4--2--2-2--|
E|-0--0--0--------0-2-4---4-2-0-------------------|

G|----------------------------------------------------------------------|
D|----------------------------------------------------------------------|
A|---------2-4-0--------0-------4-2-4--4--2--2-2--5--5-4-2-4-2---2------|
E|-0--0--0--------0-2-4---4-2-0--------------------------------5---5-4--|

Repeat Verse

Repeat Pre-Chorus

Chorus 2
G|------------------------------------------------|
D|------------------------------------------------|
A|---------2-4-0--------0-------4-2-4--4--2--2-2--|
E|-0--0--0--------0-2-4---4-2-0-------------------|

G|------------------------------------------------------------------------|
D|------------------------------------------------------------------------|
A|---------2-4-0--------0-------4-2-4--4--2--2-2---0---0-------------7----|
E|-0--0--0--------0-2-4---4-2-0--------------------------4-2-0---7-9---9--|

Guitar Solo
G|----------------------------------------------------------------------4--|
D|------------------------------------------4-2-----4--------4-------------|
A|-7--7--7--9--6---------4-5--5--5--7--4--4-----4-2---4------------2--2---2|
E|----------------7--7-7--------------------------------2--2---2-2---------|

G|------------------------------4----|
D|-0-1-2--------2-------2-----4---4--|
A|-------2----------2-4---4-2--------|
E|---------0--0---0------------------|

G|----------------------------------------------------------------------4--|
D|------------------------------------------4-2-----4--------4-------------|
A|-7--7--7--9--6---------4-5--5--5--7--4--4-----4-2---4------------2--2---2|
E|----------------7--7-7--------------------------------2--2---2-2---------|

G|-----------------------------------|
D|-0-1-2--------2--------------------|
A|-------2----------2-2-2-2-2-2-2-4--|
E|---------0--0---0------------------|

G|-----------------------------------------------------------------------------|
D|-----------------------------------------------------------------------------|
A|-5--4--2----------2-4-5--4--2----------2-4-5--4--2--0--0-0-------------------|
E|---------0--0-0-0-------------0--0-0-0---------------------0-2-4-5--4--2--0--|

Repeat Verse

Repeat Pre-Chorus

Repeat bar 1 of Chorus 1 until fade

| /  slide up
| \  slide down
| h  hammer-on
| p  pull-off
| ~  vibrato
| +  harmonic
| x  Mute note
===============================================================================
            
Submit corrections



        You Looking At Me Looking At You lessons Hard to play? Try these video lessons and learn fast You Looking At Me Looking At You lessons
        
↑ Back to top | Tablatures and chords for acoustic guitar and electric guitar, ukulele, drums are parodies/interpretations of the original songs. You may use it for private study, scholarship, research or language learning purposes only