» » »

Ozzy Osbourne - Let Me Hear You Scream Bass

Artists:  A B C D E F G H I J K L M N O P Q R S T U V W X Y Z # 

Let Me Hear You Scream Bass

(ver. 1) Click to play this song!
Ozzy Osbourne
 Rating:
4/5 (4 votes)


 Let Me Hear You Scream lessons Tabs too difficult? Try these video lessons and learn fast
 
                -------------------------------------------------------------------------------
			     LET ME HEAR YOU SCREAM - Ozzy Osbourne
-------------------------------------------------------------------------------


Tuning: Drop D



     Intro                                                                       
     W                   E  E  S E.  E  E  S E.     E  E  S E.  E  E  S E.   
G||-------------------|--------------------------|--------------------------|
D||-------------------|--------------------------|--------------------------|
A||-------------------|--------------------------|--------------------------|
D||-------------------|--3--3----0---6--6----0---|--3--3----0---6--6----0---|


  E  E  S E.  E  E  S E.     Q    Q    Q     Q        E  S  S S S  S S S  S S S S  S  S S  
--------------------------|------------------------|--------------------------------------|
--------------------------|------------------------|--------------------------------------|
--------------------------|------------------------|----------------------------5p-3p-0---|
--3--3----0---6--6----0---|--3--------------12\----|--0--3h-5-0-3h-5-0-3h-5-0-0---------5-|


  E  S  S S S  S S S  S S S E  E     E  S  S S S  S S S  S S S S  S  S S  
----------------------------------|--------------------------------------|
----------------------------------|--------------------------------------|
----------------------------------|----------------------------5p-3p-0---|
--0--3h-5-0-3h-5-0-3h-5-0-0-6--5--|--0--3h-5-0-3h-5-0-3h-5-0-0---------5-|


                                     Verse 1                                  
  E  S  S S S  S S S  S S S E  E     E  S  S S S  S S S  S S S S S S S  
----------------------------------|------------------------------------|
----------------------------------|------------------------------------|
----------------------------------|------------------------------------|
--0--3h-5-0-3h-5-0-3h-5-0-0-6--5--|--0--3h-5-0-3h-5-0-3h-5-0-0-0-0-0-0-|


  E  S  S S S  S S S  S S S E  E     E  S  S S S  S S S  S S S S S S S  
----------------------------------|------------------------------------|
----------------------------------|------------------------------------|
----------------------------------|------------------------------------|
--0--3h-5-0-3h-5-0-3h-5-0-0-3--0--|--0--3h-5-0-3h-5-0-3h-5-0-0-0-0-0-0-|


  E  S  S S S  S S S  S S S S  S  S S    E  S  S S S  S S S  S S S S S S S  
--------------------------------------|------------------------------------|
--------------------------------------|------------------------------------|
----------------------------5p-3p-0---|------------------------------------|
--0--3h-5-0-3h-5-0-3h-5-0-0---------5-|--0--3h-5-0-3h-5-0-3h-5-0-0-0-0-0-0-|


  E  S  S S S  S S S  S S S E  E     E  S  S S S  S S S  S S S S S S S  
----------------------------------|------------------------------------|
----------------------------------|------------------------------------|
----------------------------------|------------------------------------|
--0--3h-5-0-3h-5-0-3h-5-0-0-3--0--|--0--3h-5-0-3h-5-0-3h-5-0-0-0-0-0-0-|


  E  S  S S S  S S S  S S S S  S  S S    E  S  S S S  S S S  S S S S S S S  
--------------------------------------|------------------------------------|
--------------------------------------|------------------------------------|
----------------------------5p-3p-0---|------------------------------------|
--0--3h-5-0-3h-5-0-3h-5-0-0---------5-|--0--3h-5-0-3h-5-0-3h-5-0-0-0-0-0-0-|


  E  S  S S S  S S S  S S S E  E     E  S  S S S  S S S  S S S S S S S  
----------------------------------|------------------------------------|
----------------------------------|------------------------------------|
----------------------------------|------------------------------------|
--0--3h-5-0-3h-5-0-3h-5-0-0-3--0--|--0--3h-5-0-3h-5-0-3h-5-0-0-0-0-0-0-|


  E  S  S S S  S S S  S S S S  S  S S    E  S  S S S  S S S  S S S S S S S  
--------------------------------------|------------------------------------|
--------------------------------------|------------------------------------|
----------------------------5p-3p-0---|------------------------------------|
--0--3h-5-0-3h-5-0-3h-5-0-0---------5-|--0--3h-5-0-3h-5-0-3h-5-0-0-0-0-0-0-|


  E  S  S S S  S S S  S S S E  E     E  S  S S S  S S S  S S S S S S S  
----------------------------------|------------------------------------|
----------------------------------|------------------------------------|
----------------------------------|------------------------------------|
--0--3h-5-0-3h-5-0-3h-5-0-0-3--0--|--0--3h-5-0-3h-5-0-3h-5-0-0-0-0-0-0-|


  E  S  S S S  S S S  S S S S  S  S S    E  E  S E.  E  E  E  E     E  E  E  E  E  E  Q     
--------------------------------------|--------------------------|-------------------------|
--------------------------------------|--------------------------|-------------------------|
----------------------------5p-3p-0---|--1--1--1-1---1--1--1--3--|--3--3--3--5--5--5--5----|
--0--3h-5-0-3h-5-0-3h-5-0-0---------5-|--------------------------|-------------------------|


                                                   Chorus 1                        
  E  E  E  E  E  E  E  E     Q    Q    H           E  E  E  E  E  E  E  E   
--------------------------|---------------------|--------------------------|
--------------------2--3--|---------------------|--------------------------|
--3--3--3--5--5--5--------|--3------------------|--------------------------|
--------------------------|---------------------|--0--0--0--0--0--0--0--0--|


  E  E  E  E  E  E  E  E     E  E  E  E  E  E  Q        E  E  E  E  E  E   E   E    
--------------------------|--------------------------|-----------------------------|
--------------------------|--------------------------|-----------------------------|
--------------------------|--------------------------|-----------------------------|
--0--0--0--0--0--0--3--5--|--3--3--3--3--3--3--5b----|--5--5--5--5--5--5--12---L\--|


  E  E  E  E  E  E  E  E     E  E  E  E  E  E  E  E     E  E  E  E  E  E  E  E   
--------------------------|--------------------------|--------------------------|
--------------------------|--------------------------|--------------------------|
--------------------------|--------------------------|--------------------------|
--0--0--0--0--0--0--0--0--|--0--0--0--0--0--0--3--5--|--3--3--3--3--3--3--5--7--|


  E  E  E  E  E  E    E   E      S S S S S S S S S S S S S S S S    S S S S S S S S S S S S Q     
------------------------------|----------------------------------|-------------------------------|
------------------------------|----------------------------------|-------------------------------|
------------------------------|----------------------------------|-------------------------------|
--5--5--5--5--5--L/--12---L\--|--5-3-0-5-3-0-5-3-0-5-3-0-3-5-3-0-|--5-3-0-5-3-0-5-3-0-5-3-0-6----|


  S S S S S S S S S S S S S S S S    S S S S S S S S Q     E   E    
----------------------------------|--------------------------------|
----------------------------------|--------------------------------|
----------------------------------|--------------------------------|
--5-3-0-5-3-0-5-3-0-5-3-0-3-5-3-0-|--5-3-0-5-3-0-5-L-5----12---L\--|


  E  S  S S S  S S S  S S S S  S  S S    E  S  S S S  S S S  S S S E  E   
--------------------------------------|----------------------------------|
--------------------------------------|----------------------------------|
----------------------------5p-3p-0---|----------------------------------|
--0--3h-5-0-3h-5-0-3h-5-0-0---------5-|--0--3h-5-0-3h-5-0-3h-5-0-0-6--5--|


  S S S  S S S  S S S  S S S S  S  S S    E  S  S S S  S S S  S S S E  E   
---------------------------------------|----------------------------------|
---------------------------------------|----------------------------------|
-----------------------------5p-3p-0---|----------------------------------|
--0-0-3h-5-0-3h-5-0-3h-5-0-0---------5-|--0--3h-5-0-3h-5-0-3h-5-0-0-6--5--|


  Verse 2                                                                     
  E  S  S S S  S S S  S S S S S S S    E  S  S S S  S S S  S S S E  E   
------------------------------------|----------------------------------|
------------------------------------|----------------------------------|
------------------------------------|----------------------------------|
--0--3h-5-0-3h-5-0-3h-5-0-0-0-0-0-0-|--0--3h-5-0-3h-5-0-3h-5-0-0-3--0--|


  E  S  S S S  S S S  S S S S S S S    E  S  S S S  S S S  S S S S  S  S S  
------------------------------------|--------------------------------------|
------------------------------------|--------------------------------------|
------------------------------------|----------------------------5p-3p-0---|
--0--3h-5-0-3h-5-0-3h-5-0-0-0-0-0-0-|--0--3h-5-0-3h-5-0-3h-5-0-0---------5-|


  E  S  S S S  S S S  S S S S S S S    E  S  S S S  S S S  S S S E  E   
------------------------------------|----------------------------------|
------------------------------------|----------------------------------|
------------------------------------|----------------------------------|
--0--3h-5-0-3h-5-0-3h-5-0-0-0-0-0-0-|--0--3h-5-0-3h-5-0-3h-5-0-0-3--0--|


  E  S  S S S  S S S  S S S S S S S    E  S  S S S  S S S  S S S S  S  S S  
------------------------------------|--------------------------------------|
------------------------------------|--------------------------------------|
------------------------------------|----------------------------5p-3p-0---|
--0--3h-5-0-3h-5-0-3h-5-0-0-0-0-0-0-|--0--3h-5-0-3h-5-0-3h-5-0-0---------5-|


  E  S  S S S  S S S  S S S S S S S    E  S  S S S  S S S  S S S E  E   
------------------------------------|----------------------------------|
------------------------------------|----------------------------------|
------------------------------------|----------------------------------|
--0--3h-5-0-3h-5-0-3h-5-0-0-0-0-0-0-|--0--3h-5-0-3h-5-0-3h-5-0-0-3--0--|


  E  S  S S S  S S S  S S S S S S S    E  S  S S S  S S S  S S S S  S  S S  
------------------------------------|--------------------------------------|
------------------------------------|--------------------------------------|
------------------------------------|----------------------------5p-3p-0---|
--0--3h-5-0-3h-5-0-3h-5-0-0-0-0-0-0-|--0--3h-5-0-3h-5-0-3h-5-0-0---------5-|


  E  S  S S S  S S S  S S S S S S S    E  S  S S S  S S S  S S S E  E   
------------------------------------|----------------------------------|
------------------------------------|----------------------------------|
------------------------------------|----------------------------------|
--0--3h-5-0-3h-5-0-3h-5-0-0-0-0-0-0-|--0--3h-5-0-3h-5-0-3h-5-0-0-3--0--|


  E  S  S S S  S S S  S S S S S S S    E  S  S S S  S S S  S S S S  S  S S  
------------------------------------|--------------------------------------|
------------------------------------|--------------------------------------|
------------------------------------|----------------------------5p-3p-0---|
--0--3h-5-0-3h-5-0-3h-5-0-0-0-0-0-0-|--0--3h-5-0-3h-5-0-3h-5-0-0---------5-|


  E  E  S E.  E  E  E  E     E  E  E  E  E  E  Q       E  E  E  E  E  E  E  E   
--------------------------|-------------------------|--------------------------|
--------------------------|-------------------------|--------------------2--3--|
--1--1--1-1---1--1--1--3--|--3--3--3--5--5--5--5----|--3--3--3--5--5--5--------|
--------------------------|-------------------------|--------------------------|


                        Chorus 2                                                   
  Q    Q    H           E  E  E  E  E  E  E  E     E  E  E  E  E  E  E  E   
---------------------|--------------------------|--------------------------|
---------------------|--------------------------|--------------------------|
--3------------------|--------------------------|--------------------------|
---------------------|--0--0--0--0--0--0--0--0--|--0--0--0--0--0--0--3--5--|


  E  E  E  E  E  E  Q        E  E  E  E  E  E   E   E      E  E  E  E  E  E  E  E   
--------------------------|-----------------------------|--------------------------|
--------------------------|-----------------------------|--------------------------|
--------------------------|-----------------------------|--------------------------|
--3--3--3--3--3--3--5b----|--5--5--5--5--5--5--12---L\--|--0--0--0--0--0--0--0--0--|


  E  E  E  E  E  E  E  E     E  E  E  E  E  E  E  E     E  E  E  E  E  E    E   E    
--------------------------|--------------------------|------------------------------|
--------------------------|--------------------------|------------------------------|
--------------------------|--------------------------|------------------------------|
--0--0--0--0--0--0--3--5--|--3--3--3--3--3--3--5--7--|--5--5--5--5--5--L/--12---L\--|


  S S S S S S S S S S S S S S S S    S S S S S S S S S S S S Q      
----------------------------------|--------------------------------|
----------------------------------|--------------------------------|
----------------------------------|--------------------------------|
--5-3-0-5-3-0-5-3-0-5-3-0-3-5-3-0-|--5-3-0-5-3-0-5-3-0-5-3-0-6~----|


  S S S S S S S S S S S S S S S S    S S S S S S S  S Q    Q        E  E  S E.  E  E  S E.   
----------------------------------|------------------------------|--------------------------|
----------------------------------|------------------------------|--------------------------|
----------------------------------|------------------------5\----|--------------------------|
--5-3-0-5-3-0-5-3-0-5-3-0-3-5-3-0-|--5-3-0-5-3-0-5p-3-5----------|--3--3----0---6--6----0---|


  E  E  S E.  E  E  S E.     E  E  S E.  E  E  S E.     E  E  S E.  E  E  S E.   
--------------------------|--------------------------|--------------------------|
--------------------------|--------------------------|--------------------------|
--------------------------|--------------------------|--------------------------|
--3--3----0---6--6----0---|--3--3----0---6--6----0---|--3--3----0---6--6----0---|


  Guitar Solo                                                                              
  E  E  S E.  E  E  S E.     E  E  S E.  E  E  S E.     E  E  S E.  E  E  S E.   
--------------------------|--------------------------|--------------------------|
--------------------------|--------------------------|--------------------------|
--------------------------|--------------------------|--------------------------|
--3--3----0---6--6----0---|--3--3----0---6--6----0---|--3--3----0---6--6----0---|


  E  E  S E.  E  E  S E.     E  E  S E.  E  E  S E.     E  E  S E.  E  E  S E.   
--------------------------|--------------------------|--------------------------|
--------------------------|--------------------------|--------------------------|
--------------------------|--------------------------|--------------------------|
--3--3----0---6--6----0---|--3--3----0---6--6----0---|--3--3----0---6--6----0---|


                                                      Chorus 3                        
  E  E  S E.  E  E  S E.     Q    Q    Q     Q        E  E  E  E  E  E  E  E   
--------------------------|------------------------|--------------------------|
--------------------------|------------------------|--------------------------|
--------------------------|------------------------|--------------------------|
--3--3----0---6--6----0---|--3--------------12\----|--0--0--0--0--0--0--0--0--|


  E  E  E  E  E  E  E  E     E  E  E  E  E  E  Q        E  E  E  E  E  E  E  E    
--------------------------|--------------------------|---------------------------|
--------------------------|--------------------------|---------------------------|
--------------------------|--------------------------|--------------------5--L\--|
--0--0--0--0--0--0--3--5--|--3--3--3--3--3--3--5b----|--5--5--5--5--5--5---------|


  E  E  E  E  E  E  E  E     E  E  E  E  E  E  E  E     E  E  E  E  E  E  E   E   
--------------------------|--------------------------|---------------------------|
--------------------------|--------------------------|---------------------------|
--------------------------|--------------------------|---------------------------|
--0--0--0--0--0--0--0--0--|--0--0--0--0--0--0--3--5--|--3--3--3--3--3--3--5S--7--|


  E  E  E  E  Q     E  E      E  E  E  E  E  E  E  E     E  E  E  E  E  E  E  E   
---------------------------|--------------------------|--------------------------|
---------------------------|--------------------------|--------------------------|
--------------------5--L\--|--------------------------|--------------------------|
--5--5--5--5--5b-----------|--0--0--0--0--0--0--0--0--|--0--0--0--0--0--0--3--5--|


  E  E  E  E  E  E  Q        E  E  E  E  E  E  E  E      E  E  E  E  E  E  E  E   
--------------------------|---------------------------|--------------------------|
--------------------------|---------------------------|--------------------------|
--------------------------|--------------------5--L\--|--------------------------|
--3--3--3--3--3--3--5b----|--5--5--5--5--5--5---------|--0--0--0--0--0--0--0--0--|


  E  E  E  E  E  E  E  E     E  E  E  E  E  E  E   E     E  E  E  E  Q     E  E    
--------------------------|---------------------------|---------------------------|
--------------------------|---------------------------|---------------------------|
--------------------------|---------------------------|--------------------5--L\--|
--0--0--0--0--0--0--3--5--|--3--3--3--3--3--3--5S--7--|--5--5--5--5--5b-----------|


  S S S S S S S S S S S S S S S S    S S S S S S S S S S S S Q      
----------------------------------|--------------------------------|
----------------------------------|--------------------------------|
----------------------------------|--------------------------------|
--5-3-0-5-3-0-5-3-0-5-3-0-3-5-3-0-|--5-3-0-5-3-0-5-3-0-5-3-0-6~----|


  S S S S S S S S S S S S S S S S    S S S S S S S S S S S S  E   E      Q    Q    H          
----------------------------------|-----------------------------------|---------------------||
----------------------------------|-----------------------------------|---------------------||
----------------------------------|-----------------------------------|---------------------||
--5-3-0-5-3-0-5-3-0-5-3-0-3-5-3-0-|--5-3-0-5-3-0-5-3-0-5-3-0-12---L\--|--0------------------||
            
Submit corrections



        Let Me Hear You Scream lessons Hard to play? Try these video lessons and learn fast Let Me Hear You Scream lessons
        
↑ Back to top | Tablatures and chords for acoustic guitar and electric guitar, ukulele, drums are parodies/interpretations of the original songs. You may use it for private study, scholarship, research or language learning purposes only