» » »

Ozzy Osbourne - I Dont Wanna Stop Bass

Artists:  A B C D E F G H I J K L M N O P Q R S T U V W X Y Z # 

I Dont Wanna Stop Bass

(ver. 1) Click to play this song!
Ozzy Osbourne
 Rating:
4/5 (4 votes)


 I Dont Wanna Stop lessons Tabs too difficult? Try these video lessons and learn fast
 
                ----------------------------------------------------------------------------
		     I DON'T WANNA STOP - Ozzy Osbourne
----------------------------------------------------------------------------


Tuning: Dropped C tuning: A, D, & G strings are tuned down a whole step.
E string is tuned down two whole steps.

INTRO (8x)
  1 e & a 2 e & a 3 e & a 4 e & a | 1 e & a 2 e & a 3 e & a 4 e & a |
F|--------------------------------|---------------------------------|
C|--------------------------------|---------------------------------|
G|--------------------------------|---------------------------------|
C|0---0---0-0-0---0---0---0-0-0---|-0---0---0-0-0---0---0---0-0-0---|

CHORUS RIFF (4x)
  1 e & a 2 e & a 3 e & a 4 e & a | 1 e & a 2 e & a 3 e & a 4 e & a |
F|--------------------------------|---------------------------------|
C|--------------------------------|---------------------------------|
G|--------------------------------|-------------------------3-------|
C|5p3p0---3---5---3---0---0---0---|-5p3p0---3---5---3---0-----------|

VERSE 1 (5x, 1st time w/o words)
  1 e & a 2 e & a 3 e & a 4 e & a | 1 e & a 2 e & a 3 e & a 4 e & a |
F|--------------------------------|---------------------------------|
C|--------------------------------|---------------------------------|
G|--------------------------------|-----------------3---3---3---3---|
C|0-----------0-----------0-------|-----0---------------------------|
 
  1 e & a 2 e & a 3 e & a 4 e & a | 1 e & a 2 e & a 3 e & a 4 e & a |
F|--------------------------------|---------------------------------|
C|--------------------------------|-----6---5---3-------------------|
G|--------------------------------|-----------------5---3-----------|
C|0-----------0-----------0-------|-------------------------6p5p3---|

CHORUS (4x)

BREAK (1x)
  1 e & a 2 e & a 3 e & a 4 e & a | 1 e & a 2 e & a 3 e & a 4 e & a |
F|--------------------------------|---------------------------------|
C|--------3-----------3-------5---|-------------3-------5---6---5---|
G|5-----------5-------------------|-----5---------------------------|
C|--------------------------------|---------------------------------|

  1 e & a 2 e & a 3 e & a 4 e & a | 1 e & a 2 e & a 3 e & a 4 e & a |
F|--------------------------------|---------------------------------|
C|--------3-----------3-------5---|-----6---5---3-------------------|
G|5-----------5-------------------|-----------------5---3-----------|
C|--------------------------------|-------------------------6p5p3---|

VERSE 2 (4x)

CHORUS (8x)

INTRO RIFF (8x)

VERSE RIFF (4x) (guitar solo)

CHORUS (8x)

| /  slide up
| \  slide down
| h  hammer-on
| p  pull-off
| ~  vibrato
| +  harmonic
| x  Mute note
============================================================================
            
Submit corrections



        I Dont Wanna Stop lessons Hard to play? Try these video lessons and learn fast I Dont Wanna Stop lessons
        
↑ Back to top | Tablatures and chords for acoustic guitar and electric guitar, ukulele, drums are parodies/interpretations of the original songs. You may use it for private study, scholarship, research or language learning purposes only