» » »

Ozzy Osbourne - Ghost Behind My Eyes Tabs

Artists:  A B C D E F G H I J K L M N O P Q R S T U V W X Y Z # 

Ghost Behind My Eyes Tabs

(ver. 3) Click to play this song!
Ozzy Osbourne
 Rating:
4/5 (4 votes)


 Ghost Behind My Eyes lessons Tabs too difficult? Try these video lessons and learn fast
 
                This is standard tuning solo. took me some time to learn.

|-----------------------------------------------------------|
|-10-------8-------11----10-----\---2----4-----2---1--4/10--|
|-----------------------------------------------------------|
|-----------------------------------------------------------|
|-----------------------------------------------------------|
|-----------------------------------------------------------|

|-----------------------------------------------------------|
|-10-10--11--11/13---11------10-----10/18-----18\6----9-8--6|
|-----------------------------------------------------------|
|-----------------------------------------------------------|
|-----------------------------------------------------------|
|-----------------------------------------------------------|

|-----------------|----------------|------------------------|
|-6------5--4-3--|-2----4----2----|-1-----4/-10-------------|
|-----------------|----------------|------------------------|
|-----------------|----------------|------------------------|
|-----------------|----------------|------------------------|
|-----------------|----------------|------------------------|

|-----------------------------------------------------------|
|-6-----/9--8----\6-----------------------------------------|
|-----------------------------------------------------------|
|-----------------------------------------------------------|
|-----------------------------------------------------------|
            
Submit corrections



        Ghost Behind My Eyes lessons Hard to play? Try these video lessons and learn fast Ghost Behind My Eyes lessons
        
↑ Back to top | Tablatures and chords for acoustic guitar and electric guitar, ukulele, drums are parodies/interpretations of the original songs. You may use it for private study, scholarship, research or language learning purposes only