» » »

Ozzy Osbourne - Ghost Behind My Eyes Bass

Artists:  A B C D E F G H I J K L M N O P Q R S T U V W X Y Z # 

Ghost Behind My Eyes Bass

(ver. 1) Click to play this song!
Ozzy Osbourne
 Rating:
4/5 (4 votes)


 Ghost Behind My Eyes lessons Tabs too difficult? Try these video lessons and learn fast
 
                === Crankster's Ozzy Page


Ghost Behind my Eyes
Ozzy Osbourne- Ozzmosis
 

 Intro        Pre-Chorus
 G-----------|--------------------------------------------
 D-----------|-----------------7-6-4----------------------
 A-----R-----|--5---7---9\-----------7--5---7-------------
 E-----------|-------------2---------------------7-7-7\---

 Chorus
 G------------------------------------------------4-3-----2--
 D------------------------------------------------------1----
 A--9--9--8h9--8--8-8-9p8--6--6--6-6-\4---4-2--2------2------
 E-------9---------------------------------------------------

 Chorus Fill 1
 G----------------------------
 D----------7---------7-9-----
 A--5---7h9----7--7h9-----7\--
 E----------------------------

 Chorus 2
 G--------------------------------------------
 D--------------------------------------------
 A-----9--8h9--8--8-8-9p8--6--6--6-6-\4---4---
 E--2----9------------------------------------

 Chorus Fill 2
 G-----------------------------------------------------------------------------4-3-----2--
 D-------------------------------4-------4-------------------------------------------1----
 A----------7-------7-9--------------4-------2------------7-------7-9--------------2------
 E--5---7h9---7-7h9-----9\--2--2---2---2---2---2--5---7h9---7-7h9-----9\--2---------------

 Verse 
 G----------------------------------\9--8--6---
 D------------7-9--------9/11------------------
 A--------7h9-----9--7h9------9--7-------------
 E--2------------------------------------------

 Verse
 G----------------------------------9--8--6--
 D--7h8--------7h9-------9/11----------------
 A------9--7h9-----9-7/9------9--7--7--6--4--
 E-------------------------------------------

 repeat Pre-Chorus
 repeat Chorus

 Interlude
 G-----------------------------------------------------------
 D------------------------5h7--------------------------------
 A---------5/7--7-7-7-7p5----------------7\-9-9-9-9-7h9-9-9--
 E--3--3-3---------------------5--5-5--5---------------------

   "I wish to god that I could sleep again.."
 G-------------------------------------------------------------
 D---------------------------7----------------------------7h9--
 A------------5/-7-7-7-7-7-7--------------7h9-9-9-7h9-9-9------
 E--3--3-3--3------------------5--5-5---5----------------------

 G-------------------------------------------------------------
 D---------------------------7----------------------------7h9--
 A------------5/-7-7-7-7-7-7--------------7h9-9-9-7h9-9-9------
 E--3--3-3--3------------------5--5-5---5----------------------

 repeat Verse line for Solo
 repeat End fill for Chorus
 repeat Verse
 repeat Pre-chorus
 repeat Chorus
 repeat Verse for Ending
            
Submit corrections



        Ghost Behind My Eyes lessons Hard to play? Try these video lessons and learn fast Ghost Behind My Eyes lessons
        
↑ Back to top | Tablatures and chords for acoustic guitar and electric guitar, ukulele, drums are parodies/interpretations of the original songs. You may use it for private study, scholarship, research or language learning purposes only