Home » O » Outfield »

Outfield - Alone With You Tabs

Artists:  A B C D E F G H I J K L M N O P Q R S T U V W X Y Z # 

Alone With You Tabs

(ver. 1) Click to play this song!
Outfield
 Rating:
4.4/5 (7 votes)
                [Intro]
 
e|-------0-----2-----0----|
B|----------0-----0-------|
G|------------------------|
D|------------------------|x3
A|----2-----------------2-|
E|-0----------------------|
 
[Verse 1]
 
(Singing starts around 6th note)
e|-------0-----2-----0----|-------0-----2-----0----|-------5--0--7--0--5--0-|-------0-----2-----0----|
B|----------0-----0-------|----------0-----0-------|------------------------|----------0-----0-------|
G|------------------------|------------------------|------------------------|------------------------|
D|------------------------|------------------------|----2-------------------|------------------------|
A|----2-----------------2-|----2-----------------2-|-0----------------------|----2-----------------2-|
E|-0----------------------|-0----------------------|------------------------|-0----------------------|
I see your face across a crowded room
 
e|-------0-----2-----0----|-------0-----2-----0----|-------5--0--7--0--5--0-|-------------0----------|
B|----------0-----0-------|----------0-----0-------|------------------------|-------4-----------4--2-|
G|------------------------|------------------------|------------------------|------------------------|
D|------------------------|------------------------|----2-------------------|----------6-----6-------|
A|----2-----------------2-|----2-----------------2-|-0----------------------|----4-------------------|
E|-0----------------------|-0----------------------|------------------------|-4----------------------|
I hear you say that you'll be leaving soon
 
e|-------------0----------|-------0-----2-----0----|-------4--0--5----4--0-|--------------0---------|
B|-------4-----------4--2-|----------0-----0-------|-----------------------|-------4-----------4--2-|
G|------------------------|------------------------|-----------------------|------------------------|
D|----------6-----6-------|------------------------|----2------------------|----------6-----6-------|
A|----4-------------------|----2-----------------2-|-0---------------------|----4-------------------|
E|-4----------------------|-0----------------------|-----------------------|-4----------------------|
I know it's late but all that I can do
 
e|-------------0----------|-------------0---------|-------------2-------0-|-------2--0--4-----2--0-|
B|-------4-----------4--2-|-------2----------2----|-------4--0-------4----|------------------------|
G|------------------------|----------2----------2-|-----------------------|------------------------|
D|----------6-----6-------|-----------------------|----1------------------|----2-------------------|
A|----4-------------------|-0--4------------------|-2---------------------|-2----------------------|
E|-4----------------------|-----------------------|-----------------------|------------------------|
Is close my eyes and dream that I'm alone with you
 
e|-------2--0--4----2--0-|-------0-----2----0----|-------5--0--7----5--0-|-------0-----2----0----|
B|-----------------------|----------0------------|-----------------------|----------0------------|
G|-----------------------|-----------------------|-----------------------|-----------------------|
D|----2------------------|-----------------------|----2------------------|-----------------------|
A|-2---------------------|----2----------------2-|-0---------------------|----2----------------2-|
E|-----------------------|-0---------------------|-----------------------|-0---------------------|
I'd like to talk to you so much but I don't know your name
 
e|-------0-----2----0----|-------0-----2----0----|-------5--0--7----5--0-|-------------0---------|
B|----------0------------|----------0------------|-----------------------|-------4----------4--2-|
G|-----------------------|-----------------------|-----------------------|-----------------------|
D|-----------------------|-----------------------|----2------------------|----------6------------|
A|----2----------------2-|----2----------------2-|-0---------------------|----4------------------|
E|-0---------------------|-0---------------------|-----------------------|-4---------------------|
I bet there's not a man in here that doesn't feel the same
 
e|-------------0---------|-------0-----2----0----|-------5--0--7----5--0-|-------------0---------|
B|-------4----------4--2-|----------0------------|-----------------------|-------4----------4--2-|
G|-----------------------|-----------------------|-----------------------|-----------------------|
D|----------6------------|-----------------------|----2------------------|----------6------------|
A|----4------------------|----2----------------2-|-0---------------------|----4------------------|
E|-4---------------------|-0---------------------|-----------------------|-4---------------------|
As you're walking out the door there's nothing I can do
 
e|-------------0---------|-------------0---------|-------------2-------0-|-------2--0--4-----2--0-|
B|-------4----------4--2-|-------2----------2----|-------4--0-------4----|------------------------|
G|-----------------------|----------2----------2-|-----------------------|------------------------|
D|----------6------------|-----------------------|----1------------------|----2-------------------|
A|----4------------------|-0--4------------------|-2---------------------|-2----------------------|
E|-4---------------------|-----------------------|-----------------------|------------------------|
I close my eyes and dream that I'm alone with you
 
e|-------2--0--4-----2--0-|
B|------------------------|
G|------------------------|
D|----2-------------------|
A|-2----------------------|
E|------------------------|
 
            A               C#m                    B
Yeah it's once in my life, wish that I wasn't alone with myself
            A               C#m                    B
I feel like a child, seems that I can't think of anyone else
 
[Solo]
 
e|-----------------------------------------------------------|
B|-----------------------------------------------------------|
G|-----------------------------------------------------------|
D|----------2----2-4h6---4--2-4h6p4--2--4----4-2-1-2-1-------|
A|-4\2-4-------4---------------------------------------2-2h4-|
E|-----------------------------------------------------------|
 
e|----------------------------------7-----7-----7-----7-----7-|
B|-------------------7/9b---7-5-7-----5-----5-----5-----5-----|
G|----------4h6-6-----------------------8-----8-----8-----8---|
D|-2--2-4h6---------------------------------------------------|
A|------------------------------------------------------------|
E|------------------------------------------------------------|
 
[Verse 2]
e|----0-----2----0----|-------5--0--7----5--0--|-------0-----2----0----|-------0-----2-----0----|
B|-------0------------|------------------------|----------0------------|----------0-----0-------|
G|--------------------|------------------------|-----------------------|------------------------|
D|--------------------|----2-------------------|-----------------------|------------------------|
A|-2----------------2-|-0----------------------|----2----------------2-|----2-----------------2-|
E|--------------------|------------------------|-0---------------------|-0----------------------|
The night is over an' I guess you're gone
 
e|-------0-----2----0----|-------0-----2----0----|-------5--0--7----5--0-|-------------0---------|
B|----------0------------|----------0------------|-----------------------|-------4----------4--2-|
G|-----------------------|-----------------------|-----------------------|-----------------------|
D|-----------------------|-----------------------|----2------------------|----------6------------|
A|----2----------------2-|----2----------------2-|-0---------------------|----4------------------|
E|-0---------------------|-0---------------------|-----------------------|-4---------------------|
I try and tell myself forget it and just carry on
 
e|-------------0---------|-------0-----2----0----|-------4--0--5----4--0-|-------------0---------|
B|-------4----------4--2-|----------0------------|-----------------------|-------4----------4--2-|
G|-----------------------|-----------------------|-----------------------|-----------------------|
D|----------6------------|-----------------------|----2------------------|----------6------------|
A|----4------------------|----2----------------2-|-0---------------------|----4------------------|
E|-4---------------------|-0---------------------|-----------------------|-4---------------------|
But as I walk these lonely streets with nothing else to do
 
e|-------------0---------|-------------0---------|-------------2-------0-|-------2--0--4-----2--0-|
B|-------4----------4--2-|-------2----------2----|-------4--0-------4----|------------------------|
G|-----------------------|----------2----------2-|-----------------------|------------------------|
D|----------6------------|-----------------------|----1------------------|----2-------------------|
A|----4------------------|-0--4------------------|-2---------------------|-2----------------------|
E|-4---------------------|-----------------------|-----------------------|------------------------|
I close my eyes and dream that I'm alone with you
 
e|-------2--0--4----2--0-|-------0-----2----0----|-------------2-------0-|-------------0---------|
B|-----------------------|----------0----------0-|-------4--0-------4----|-------4----------4--2-|
G|-----------------------|-----------------------|-----------------------|-----------------------|
D|----2------------------|-----------------------|----1------------------|----------6------------|
A|-2---------------------|----2------------------|-2---------------------|----4------------------|
E|-----------------------|-0---------------------|-----------------------|-4---------------------|
I close my eyes and dream that I'm alone with you
 
e|-------------0---------|-------------0---------|-------------0---------|-------------0---------|
B|-------4----------4--2-|-------2----------2----|-------4----------4--2-|-------4----------4--2-|
G|-----------------------|----------2----------2-|-----------------------|-----------------------|
D|----------6------------|-----------------------|----------6------------|----------6------------|
A|----4------------------|-0--4------------------|----4------------------|----4------------------|
E|-4---------------------|-----------------------|-4---------------------|-4---------------------|
I close my eyes and dream that I'm alone with you
 
e|-------------0---------|
B|-------4----------4--2-|
G|-----------------------|
D|----------6------------|
A|----4------------------|
E|-4---------------------|
            
Submit corrections

↑ Back to top | Tablatures and chords for acoustic guitar and electric guitar, ukulele, drums are parodies/interpretations of the original songs. You may use it for private study, scholarship, research or language learning purposes only