» » »

Our Lady Peace - Everyone's A Junkie Bass

Artists:  A B C D E F G H I J K L M N O P Q R S T U V W X Y Z # 

Everyone's A Junkie Bass

(ver. 3) Click to play this song!
Our Lady Peace
 Rating:
4/5 (4 votes)


 Everyone's A Junkie lessons Tabs too difficult? Try these video lessons and learn fast
 
                
h=Hammer on
p=pull off
\=slide down

Opening Verse:
G|----------------------------------------------------------|
D|----------16-------16h18h16p-15---15-16h15p---------15-15-|
A|-11-11—-14--14------------------16----------18-16h18------| x4
D|----------------------------------------------------------|



Pre-Chorus:
(“where does it stop, where does it end, why am I always complaining”)
G|-----------------------------------------------|
D|-----------------------------------------------|
A|-----------------------------------------------| x2
D|-6-6-6-6---9-9-9-9---9-9---4-4-4p0-3h--3-0-3-4-|



Chorus:
G|-------------------------------------------------------------|
D|---------------------------------------8-8-------------------|
A|-------------4-4-4-4-4-4-4-4----------9-9-9------------------|
D|-4-4-4-4-4--------------------6--6-6---------9--9-8-6-8-9-11-|

G|---------------------------------------------------------------|
D|---------8-11--------------------------------------------------|
A|--------9-9--9--4-4-4-4-4-4-4-4-----------------------2--2-2-2-|
D|-4-4-4----------------------------2-2-1-2--2-1-2--2-1----------|

G|-------------------------------------------------------------|
D|---------------------------------------8-8-------------------|
A|-------------4-4-4-4-4-4-4-4----------9-9-9------------------|
D|-4-4-4-4-4--------------------6--6-6---------9--9-8-6-8-9-11-|


G|---------------------------------------------------------------|
D|---------8-11--------------------------------------------------|
A|--------9-9--9--4-4-4-4-4-4-4-4--------------------------------|
D|-4-4-4----------------------------2-2-1-2--2-1-2--2-1-2--2-2-2-|



(Pause “Big green monkey, everyone's a junkie”)



Verse:
G|----------------------------------------------------------|
D|----------16-------16-18h16p-15---15-16h15p---------15-15-|
A|-11-11—-14--14------------------16----------18-16h18------| x2
D|----------------------------------------------------------|



Pre-Chorus:
(“where does it stop, where does it end, why am I always complaining”)
G|-----------------------------------------------|
D|-----------------------------------------------|
A|-----------------------------------------------| x2
D|-6-6-6-6---9-9-9-9---9-9---4-4-4p0-3h--3-0-3-4-|
 


Chorus:
G|------------------------------------------------------------|
D|--------------------------------------8-8-------------------|
A|-------------4-4-4-4-4-4-4-4---------9-9-9------------------|
D|-4-4-4-4-4--------------------6--6-6--------9--9-8-6-8-9-11-|

G|---------------------------------------------------------------|
D|---------8-11--------------------------------------------------|
A|--------9-9--9--4-4-4-4-4-4-4-4-----------------------2--2-2-1-|
D|-4-4-4----------------------------2-2-1-2--2-1-2--2-1----------|

G|------------------------------------------------------------|
D|--------------------------------------8-8-------------------|
A|-------------4-4-4-4-4-4-4-4---------9-9-9------------------|
D|-4-4-4-4-4--------------------6--6-6--------9--9-8-6-8-9-11-|


G|------------------------------------------------------------------|
D|---------8-11-----------------------------------------------------|
A|--------9-9--9--4-4-4-4-4-4-4-4-----------------------------------|
D|-4-4-4----------------------------2-2-1-2--2-1-2--2-1-2--2-2-2—6\-|



Interlude:
G|------------------------------------------|
D|-----6-6---------------3h4h3p4h3p4h3p4h3p-|
A|--------------------1-1-------------------| x2
D|-6-6-----6------4-4-----------------------|

G|------------------------------------------|
D|-----------------------3h4h3p4h3p4h3p4h3p-|
A|--------------------1-1-------------------| x2
D|----------------4-4-----------------------|

G|------------------------------------------------------|
D|-----6-6---------------------------3h4h3p4h3p4h3p4h3p-|
A|-------------------------------1-1--------------------| x2
D|-6-6-----6--9-6--4-6-6-----4-4------------------------|





Chorus:
G|------------------------------------------------------------|
D|--------------------------------------8-8-------------------|
A|-------------4-4-4-4-4-4-4-4---------9-9-9------------------|
D|-4-4-4-4-4--------------------6--6-6--------9--9-8-6-8-9-11-|

G|---------------------------------------------------------------|
D|---------8-11--------------------------------------------------|
A|--------9-9--9--4-4-4-4-4-4-4-4-----------------------2--2-2-1-|
D|-4-4-4----------------------------2-2-1-2--2-1-2--2-1----------|

G|------------------------------------------------------------|
D|--------------------------------------8-8-------------------|
A|-------------4-4-4-4-4-4-4-4---------9-9-9------------------|
D|-4-4-4-4-4--------------------6--6-6--------9--9-8-6-8-9-11-|


G|------------------------------------------------------------------|
D|---------8-11-----------------------------------------------------|
A|--------9-9--9--4-4-4-4-4-4-4-4-----------------------------------|
D|-4-4-4----------------------------2-2-1-2--2-1-2--2-1-2--2-2-2—---|



Brief Interlude:
“I’ll remember this someday”
G|--------------------------------|
D|-9-9-8-9---9-8-9--9-8-9--8-9-11-|
A|--------------------------------|
D|--------------------------------|


Chorus:
G|------------------------------------------------------------|
D|--------------------------------------8-8-------------------|
A|-------------4-4-4-4-4-4-4-4---------9-9-9------------------|
D|-4-4-4-4-4--------------------6--6-6--------9--9-8-6-8-9-11-|

G|-----------------------------------------------9-9-8-----------|
D|---------8-11----------------------------------------9-9-9-9---|
A|--------9-9--9--4-4-4-4-4-4-4-4--------------------------------|
D|-4-4-4----------------------------2-2-1-2--2-1-----------------|

G|------------------------------------------------------------|
D|--------------------------------------8-8-------------------|
A|-------------4-4-4-4-4-4-4-4---------9-9-9------------------|
D|-4-4-4-4-4--------------------6--6-6--------9--9-8-6-8-9-11-|

G|------------------------------------------------------------------|
D|---------8-11-----------------------------------------------------|
A|--------9-9--9--4-4-4-4-4-4-4-4---------------------------------2-|
D|-4-4-4----------------------------2-2-1-2--2-1-2--2-1-2--2-2-2—---|
            
Submit corrections



        Everyone's A Junkie lessons Hard to play? Try these video lessons and learn fast Everyone's A Junkie lessons
        
↑ Back to top | Tablatures and chords for acoustic guitar and electric guitar, ukulele, drums are parodies/interpretations of the original songs. You may use it for private study, scholarship, research or language learning purposes only