Home » O » Opeth »

Opeth - Hope Leaves Bass

Artists:  A B C D E F G H I J K L M N O P Q R S T U V W X Y Z # 

Hope Leaves Bass

(ver. 1) Click to play this song!
Opeth
 Rating:
4/5 (4 votes)
                                   HOPE LEAVES
               As recorded by Opeth
          (From the 2003 Album DAMNATION) 


Words & music by Mikael Akerfeldt

B     x 2 x x
A     5 x x x  or  x x 7 x
F#    2 x x x  or  x x 4 x
G     3 x x x 
E     x x 2 x
C#    x 4 x x
D     x 5 x x


Gtr I (E A D G) - 'Martin Mendez w/ Clean'


Bass starts just before the second verse.

[01.13 - 01.19]

G|--------------------------|
D|--------------------------|
A|---2~~--------------------|
E|----------5--2--3-------5-|


Verse 2  [01.20 - 01.46]
                                        4x   
G||-------------------------------------||
D||o-----------------------------------o||
A||o--2~~--2--2-2----------------------o||
E||----------------5-2-3---3--3-3---5---||


Chorus [01.47 - 01.57]
                   2x
G||----------------||---------------|
D||o--------------o||---------------|
A||o--------------o||---------------|
E||---4----3--3-3--||--4-----3---5--|


Fill [01.58 - 02.25]

G|---------------------------||\
D|-------2-2-----------------|| \
A|-2--2------4-4--5----------||  \
E|--------------------5--2---||   |
                             ||   | 4x
G|------------------------2--||   |
D|-----------------2---4-----||  /
A|-2--2--4-4--5-5------------|| /
E|---------------------------||/


Interlude [02.25 - 02.35] NOTE: Let these notes ring during the interlude.

G|--4~~-------|
D|------------|
A|--2~~-------|
E|------------|


Fill [02.36 - 02.49]
            
G|--------------------------------|
D|--------REST--------------------|
A|--------------------------------|
E|--------------------------------|


Verse 3 [02.50 - 03.17]
                                        4x
G||-------------------------------------||
D||o-----------------------------------o||
A||o--2~~--2--2-2----------------------o||
E||----------------5-2-3---3--3-3---5---||


Chorus [03.17 - 03.27]
                   2x
G||----------------||---------------|
D||o--------------o||---------------|
A||o--------------o||---------------|
E||---4----3--3-3--||--4-----3---5--|


Fill [03.28 - repeat and fade out to the end]

G|---------------------------||
D|-------2-2-----------------||
A|-2--2------4-4--5----------||
E|--------------------5--2---||  
                             ||   
G|------------------------2--||
D|-----------------2---4-----||
A|-2--2--4-4--5-5------------||
E|---------------------------||


Finished [04.22]
            
Submit corrections

↑ Back to top | Tablatures and chords for acoustic guitar and electric guitar, ukulele, drums are parodies/interpretations of the original songs. You may use it for private study, scholarship, research or language learning purposes only