» » »

Operation Ivy - Jaded Bass

Artists:  A B C D E F G H I J K L M N O P Q R S T U V W X Y Z # 

Jaded Bass

(ver. 1) Click to play this song!
Operation Ivy
 Rating:
3.7/5 (6 votes)
                Song Title: Jaded
----------------------------------------------

Jaded -- Operation Ivy off "Energy"

This is one of my favorite OpIv songs. I'm not going to include the fills that
Matt McCall or Freeman or whatever the hell he calls himself these days plays;
do that off the top of your head. Chances are if he were to play the same song 
today (which is unlikely knowing Rancid) the fills would be totally different.


Intro 

[-------]
[-------]
[-3-----]
[---4-3-]

Verse
[----------------------------]
[------------------------3-2-]
[-3-3-3-3--------------------]
[---------4-4-4-4-3-3-3-3----]



"...while, while, every once in awhile" part
[----------------------------------------------------]
[---------------------------------------------1--1-1-]
[---1--1-1--3--3-3--4--4-4----1--1-1--3--3-3---------]
[-3-------------------------3------------------------]


"..beautiful, I would say"
[-----5h3-5h3----------]
[-------------3-3-5----]
[-3--------------------]
[----------------------]
            
Submit corrections

↑ Back to top | Tablatures and chords for acoustic guitar and electric guitar, ukulele, drums are parodies/interpretations of the original songs. You may use it for private study, scholarship, research or language learning purposes only