» » »

Onerepublic - Stop And Stare Bass

Artists:  A B C D E F G H I J K L M N O P Q R S T U V W X Y Z # 

Stop And Stare Bass

(ver. 1) Click to play this song!
Onerepublic
 Rating:
4/5 (4 votes)


 Stop And Stare lessons Tabs too difficult? Try these video lessons and learn fast
 
                It is an absolute travesty that a tab is not already up for this. So, yeah, this
is how you play it. 

The bass doesn't come in till the bridge:
|----------------|----------------|----------------|----------------|
|----------------|----------------|7-7-7-7-7-7-7-9-|9-9-9-7-7-7-9-9-|
|4-4-7-4-4-4-4-4-|6-6-6-6-6-9-9-9-|----------------|----------------|
|----------------|----------------|----------------|----------------|

|--------------9---|--------------9---|----------------|----------------|
|11-11-11-9-11----9|11-11-11-9-11----9|7-7-7-7-7-7-9-7\|----------------|
|------------------|------------------|----------------|0-0-0-0-0-0-0-0-|
|------------------|------------------|----------------|----------------|

Chorus:
|----------------|----------------|----------------|----------------|
|----------------|----------------|----------------|----------------|
|----------------|----------------|2-2-2-2-2-2-2-2-|2-2-2-2-2-0-2-0-|
|0-0-0-0-0-0-0-0-|0-0-0-0-0-2-2-2-|----------------|----------------|

|----------------|----------------|----------------|-----------------------|
|----------------|--4-4-4-4-2-4---|----------------|-----------------------|
|4-4-4-4-6-6-6-6-|6-------------2-|0-0-0-0-0-0-0-0-|12-12-12-12-12-14-14-14|
|----------------|----------------|----------------|-----------------------|

|----------------|----------------|----------------|----------------|
|----------------|----------------|----------------|----------------|
|----------------|----------------|2-2-2-2-2-2-2-2-|2-2-2-2-2-0-2-0-|
|0-0-0-0-0-0-0-0-|0-0-0-2-4-4-2-0-|----------------|----------------|

|----------------|----------------|----------------|----------------|
|----------------|----------------|----------------|7-7-7-9-9-7-7-7-|
|4-4-4-4-6-6-6-6-|4-4-4-6-7-6-4-2-|0-0-0-0-0-0-0-0-|----------------|
|----------------|----------------|----------------|----------------|

Break:
|----------------|----------------|
|----------------|----------------|
|----------------|------------2--/|
|0---------------|----------------|

Verse:
|----------------|----------------|----------------|----------------|
|----------------|----------------|9-9-9-9-9-9-9-9-|9-9-9-9-9-7-9-7-|
|7-7-7-7-7-7-7-7-|7-7-7-7-7-9-9-9-|----------------|----------------|
|----------------|----------------|----------------|----------------|

|---------------11-11-11-|------------------------|
|11-11-11-14-14----------|14-14-14-14-14-11-11-11-|
|------------------------|------------------------|
|------------------------|------------------------|

|----------------|----------------|----------------|----------------|
|7-7-7-7-7-7-7-7-|7-9-9-9-9-7-7-7-|----------------|----------------|
|----------------|----------------|4-4-4-4-4-4-4-4-|6-6-6-6-7-7-7-7-|
|----------------|----------------|----------------|----------------|

|----------------|--------------------|
|7-7-7-7-7-7-7-7-|9-9-9-9-11-11-11-11-|
|----------------|--------------------|
|----------------|--------------------|

Chorus:
|----------------|----------------|----------------|--------------------|
|----------------|----------------|----------------|--------------------|
|----------------|----------------|2-2-2-2-2-2-2-2-|2-2-2-2-14-14-14-14-|
|0-0-0-0-0-0-0-0-|0-0-0-0-2-2-4-4-|----------------|--------------------|

|-------------------|-------------------|----------------|-----------------|
|11-11-11-11-11-11-9|11-11-11-911-11-11-|----------------|7-7-7-9-9-7h9p7-9|
|-------------------|------------------0|0-0-0-0-0-0-0-0-|-----------------|
|-------------------|-------------------|----------------|-----------------|

|----------------|----------------|----------------|----------------|
|----------------|----------------|----------------|----------------|
|----------------|----------------|2-2-2-2-2-2-2-2-|2-2-2-7-7-6-6-6-|
|0-0-0-0-0-0-0-0-|0-2-2-4-4-2-4-2-|----------------|----------------|

|----------------|----------------|----------------|--------------------|
|----------------|----------------|7-7-7-7-7-7-7-9-|9-11-11-9-7h9p7-----|
|4-4-4-4-4-4-4-4-|4-6-6-7-7-6-6-6-|----------------|----------------9-9-|
|----------------|----------------|----------------|--------------------|

Outro:
|----------------|----------------|----------------|----------------|
|----------------|----------------|----------------|----------4-2---|
|7-7-7-7-7-9-9-9\|----------------|2-2-2-2-2-2-2-0-|2-2-2-0-2-----2-|
|----------------|0-0-0-2-2-4-4-4-|----------------|----------------|

|----------------|----------------|----------------|----------------|
|----------------|----------------|7-7-7-7-7-7-7-7-|9-9-9-9-9-9-9-9-|
|4-4-4-4-4-6-6-6-|7-7-9-9-9-7-9-7-|----------------|----------------|
|----------------|----------------|----------------|----------------|

|----------------|
|----------------|
|7---------------|
|0---------------|
            
Submit corrections



        Stop And Stare lessons Hard to play? Try these video lessons and learn fast Stop And Stare lessons
        
↑ Back to top | Tablatures and chords for acoustic guitar and electric guitar, ukulele, drums are parodies/interpretations of the original songs. You may use it for private study, scholarship, research or language learning purposes only