» » »

Onerepublic - Good Life 1 Bass

Artists:  A B C D E F G H I J K L M N O P Q R S T U V W X Y Z # 

Good Life 1 Bass

(ver. 1) Click to play this song!
Onerepublic
 Rating:
4/5 (4 votes)


 Good Life 1 lessons Tabs too difficult? Try these video lessons and learn fast
 
                Onerepublic - The Good Life

INTRO/VERSE

G|-------------------------|
D|-------------------------|
A|-------2~----6~----4~----|
E|-2~----------------------|


CHORUS

G|-----------------------------------------------------------------|
D|-----------------------------------------------------------------|
A|---------------------------------6-6-6-6-6-6-6-6-4-4-4-4-4-4-4-4-|
E|-2-2-2-2-2-2-2-2-7-7-7-7-7-7-7-7---------------------------------|

(My first upload, so I hope you like it)
            
Submit corrections



        Good Life 1 lessons Hard to play? Try these video lessons and learn fast Good Life 1 lessons
        
↑ Back to top | Tablatures and chords for acoustic guitar and electric guitar, ukulele, drums are parodies/interpretations of the original songs. You may use it for private study, scholarship, research or language learning purposes only