» » »

Onerepublic - Apologize Tabs

Artists:  A B C D E F G H I J K L M N O P Q R S T U V W X Y Z # 

Apologize Tabs

(ver. 3) Click to play this song!
Onerepublic
 Rating:
4/5 (7 votes)


 Apologize lessons Tabs too difficult? Try these video lessons and learn fast
 
                

Solo

e|-----------------|------------------|----------------|------11------11|
B|-8/9-9-9-9-9/8-8-|8-8/11-11-11-11/8-|8-8-8/9-9-9-9/8-9-8-9----9-8-9---|
G|-----------------|------------------|----------------|----------------|
D|-----------------|------------------|----------------|----------------|
A|-----------------|------------------|----------------|----------------|
E|-----------------|------------------|----------------|----------------|


e|-----------------|------------------|----------------|------18--------18|
B|15/16-16-16-16/15-15-15-15-15/18-18-18-18/15-15-15-16-15-16---16-15-16--|
G|-----------------|------------------|----------------|------------------|
D|-----------------|------------------|----------------|------------------|
A|-----------------|------------------|----------------|------------------|
E|-----------------|------------------|----------------|------------------|


e|---------18------|----18~----------------------------|---------------------|
B|16-15-16----16-15-16----------------|----------------|---------------------|
G|-----------------|------------------|----------------|---------------------|
D|-----------------|------------------|----------------|---------------------|
A|-----------------|------------------|----------------|---------------------|
E|-----------------|------------------|----------------|---------------------|
            
Submit corrections



        Apologize lessons Hard to play? Try these video lessons and learn fast Apologize lessons
        
↑ Back to top | Tablatures and chords for acoustic guitar and electric guitar, ukulele, drums are parodies/interpretations of the original songs. You may use it for private study, scholarship, research or language learning purposes only