Home » O » Omega »

Omega - Lady Of The Summer Night Chords

Artists:  A B C D E F G H I J K L M N O P Q R S T U V W X Y Z # 

Lady Of The Summer Night Chords

(ver. 1) Click to play this song!
Omega
 Rating:
4.3/5 (15 votes)
                [Intro]
 
e|-----------------|--------------|-----------------|--------------|-----------------|
B|-----------------|--------------|-----------------|--------------|-----------------|
G|-----------------|--------------|-----------------|--------------|-----------------|
D|-----------------|--------------|-----------------|--------------|-----------------|
A|--3--4--3-----6--|--------------|--3--4--3-----6--|--------------|--3--4--3-----6--|
E|-----------4-----|--4--4--4--4--|-----------4-----|--4--4--4--4--|-----------4-----|
 
[Verse 1]
 
e|--------------|-----------------|--------------|-----------------|--------------|-----------------|
B|--------------|-----------------|--------------|-----------------|--------------|-----------------|
G|--------------|-----------------|--------------|-----------------|--------------|-----------------|
D|--------------|-----------------|--------------|-----------------|--------------|-----------------|
A|--------------|--3--4--3-----6--|--------------|--3--4--3-----6--|--------------|--5--6--5-----8--|
E|--4--4--4--4--|-----------4-----|--4--4--4--4--|-----------4-----|--6--6--6--6--|-----------6-----|
 
e|--------------|-----------------|--------------|-----------------|--------------|-----------------|
B|--------------|-----------------|--------------|-----------------|--------------|-----------------|
G|--------------|-----------------|--------------|-----------------|--------------|-----------------|
D|--------------|-----------------|--------------|-----------------|--------------|-----------------|
A|--------------|--5--6--5-----8--|--4--4--4--4--|--3--4--3-----6--|--4--4--4--4--|--3--4--3-----4--|
E|--6--6--6--6--|-----------6-----|--------------|-----------4-----|--------------|-----------4-----|
 
e|--------------|-----------------|--------------|-----------------|
B|--------------|-----------------|--------------|-----------------|
G|--------------|-----------------|--------------|-----------------|
D|--------------|-----------------|--------------|-----------------|
A|--------------|--3--4--3-----6--|--------------|--3--4--3-----6--|
E|--4--4--4--4--|-----------4-----|--4--4--4--4--|-----------4-----|
 
e|--------------|-----------------|--------------|-----------------|--------------|-----------------|
B|--------------|-----------------|--------------|-----------------|--------------|-----------------|
G|--------------|-----------------|--------------|-----------------|--------------|-----------------|
D|--------------|-----------------|--------------|-----------------|--------------|-----------------|
A|--------------|--3--4--3-----6--|--------------|--3--4--3-----6--|--------------|--5--6--5-----8--|
E|--4--4--4--4--|-----------4-----|--4--4--4--4--|-----------4-----|--6--6--6--6--|-----------6-----|
 
e|--------------|-----------------|--------------|-----------------|--------------|-----------------|
B|--------------|-----------------|--------------|-----------------|--------------|-----------------|
G|--------------|-----------------|--------------|-----------------|--------------|-----------------|
D|--------------|-----------------|--------------|-----------------|--------------|-----------------|
A|--------------|--5--6--5-----8--|--4--4--4--4--|--3--4--3-----6--|--4--4--4--4--|--3--4--3-----4--|
E|--6--6--6--6--|-----------6-----|--------------|-----------4-----|--------------|-----------4-----|
 
e|--------------|-----------------|--------------|-----------------|
B|--------------|-----------------|--------------|-----------------|
G|--------------|-----------------|--------------|-----------------|
D|--------------|-----------------|--------------|-----------------|
A|--------------|--3--4--3-----6--|--------------|--3--4--3-----6--|
E|--4--4--4--4--|-----------4-----|--4--4--4--4--|-----------4-----|
 
 
[Chorus]
 
e|---------------|-------------------------------|------------------|--------------------------|
B|---------------|-------------------------------|------------------|--------------------------|
G|--3-/-5--3--5--|--1--4-/-10--8--8--6--8--1--3--|--5--6--5--3-/-5--|--1--4-/-10--8--8-\-6--8--|
D|---------------|-------------------------------|------------------|--------------------------|
A|---------------|-------------------------------|------------------|--------------------------|
E|---------------|-------------------------------|------------------|--------------------------|
 
e|------------------------------|
B|------------------------------|
G|--1--3-/-6--5--5--3--3--1--1--|
D|------------------------------|
A|------------------------------|
E|------------------------------|
 
[Verse 2]
 
e|-----------------|--------------|-----------------|
B|-----------------|--------------|-----------------|
G|-----------------|--------------|-----------------|
D|-----------------|--------------|-----------------|
A|--3--4--3-----6--|--------------|--3--4--3-----6--|
E|-----------4-----|--4--4--4--4--|-----------4-----|
 
e|--------------|-----------------|--------------|-----------------|--------------|-----------------|
B|--------------|-----------------|--------------|-----------------|--------------|-----------------|
G|--------------|-----------------|--------------|-----------------|--------------|-----------------|
D|--------------|-----------------|--------------|-----------------|--------------|-----------------|
A|--------------|--3--4--3-----6--|--------------|--3--4--3-----6--|--------------|--5--6--5-----8--|
E|--4--4--4--4--|-----------4-----|--4--4--4--4--|-----------4-----|--6--6--6--6--|-----------6-----|
 
e|--------------|-----------------|--------------|-----------------|--------------|-----------------|
B|--------------|-----------------|--------------|-----------------|--------------|-----------------|
G|--------------|-----------------|--------------|-----------------|--------------|-----------------|
D|--------------|-----------------|--------------|-----------------|--------------|-----------------|
A|--------------|--5--6--5-----8--|--4--4--4--4--|--3--4--3-----6--|--4--4--4--4--|--3--4--3-----4--|
E|--6--6--6--6--|-----------6-----|--------------|-----------4-----|--------------|-----------4-----|
 
e|--------------|-----------------|--------------|-----------------|
B|--------------|-----------------|--------------|-----------------|
G|--------------|-----------------|--------------|-----------------|
D|--------------|-----------------|--------------|-----------------|
A|--------------|--3--4--3-----6--|--------------|--3--4--3-----6--|
E|--4--4--4--4--|-----------4-----|--4--4--4--4--|-----------4-----|
 
e|--------------|-----------------|--------------|-----------------|--------------|-----------------|
B|--------------|-----------------|--------------|-----------------|--------------|-----------------|
G|--------------|-----------------|--------------|-----------------|--------------|-----------------|
D|--------------|-----------------|--------------|-----------------|--------------|-----------------|
A|--------------|--3--4--3-----6--|--------------|--3--4--3-----6--|--------------|--5--6--5-----8--|
E|--4--4--4--4--|-----------4-----|--4--4--4--4--|-----------4-----|--6--6--6--6--|-----------6-----|
 
e|--------------|-----------------|--------------|-----------------|--------------|-----------------|
B|--------------|-----------------|--------------|-----------------|--------------|-----------------|
G|--------------|-----------------|--------------|-----------------|--------------|-----------------|
D|--------------|-----------------|--------------|-----------------|--------------|-----------------|
A|--------------|--5--6--5-----8--|--4--4--4--4--|--3--4--3-----6--|--4--4--4--4--|--3--4--3-----4--|
E|--6--6--6--6--|-----------6-----|--------------|-----------4-----|--------------|-----------4-----|
 
e|--------------|-----------------|--------------|-----------------|
B|--------------|-----------------|--------------|-----------------|
G|--------------|-----------------|--------------|-----------------|
D|--------------|-----------------|--------------|-----------------|
A|--------------|--3--4--3-----6--|--------------|--3--4--3-----6--|
E|--4--4--4--4--|-----------4-----|--4--4--4--4--|-----------4-----|
 
[Chorus]
 
e|---------------|-------------------------------|------------------|--------------------------|
B|---------------|-------------------------------|------------------|--------------------------|
G|--3-/-5--3--5--|--1--4-/-10--8--8--6--8--1--3--|--5--6--5--3-/-5--|--1--4-/-10--8--8-\-6--8--|
D|---------------|-------------------------------|------------------|--------------------------|
A|---------------|-------------------------------|------------------|--------------------------|
E|---------------|-------------------------------|------------------|--------------------------|
 
e|------------------------------|
B|------------------------------|
G|--1--3-/-6--5--5--3--3--1--1--|
D|------------------------------|
A|------------------------------|
E|------------------------------|
 
[Solo]
 
e|------|----------|------------------------|---------|---------------|----------|-------------------------|
B|--13--|--11--13--|--9--18--16--16--14--16-|--9--11--|--13--14----13-|--11--13--|--9--18--16--16--14--16--|
G|------|----------|------------------------|---------|---------------|----------|-------------------------|
D|------|----------|------------------------|---------|---------------|----------|-------------------------|
A|------|----------|------------------------|---------|---------------|----------|-------------------------|
E|------|----------|------------------------|---------|---------------|----------|-------------------------|
 
e|-------------------------------|--------------|-----------------|--------------|-----------------|
B|--9--14--13--13--11--11--9--9--|--------------|-----------------|--------------|-----------------|
G|-------------------------------|--------------|-----------------|--------------|-----------------|
D|-------------------------------|--------------|-----------------|--------------|-----------------|
A|-------------------------------|--------------|--3--4--3-----6--|--------------|--3--4--3-----6--|
E|-------------------------------|--4--4--4--4--|-----------4-----|--4--4--4--4--|-----------4-----|
 
e|------|-------------|--8--8--14--|-13--9--|--6--13--15--|--13--12--|--13--15--16--13--15--16--|
B|--12--|--9--12--13--|------------|--------|-------------|----------|--------------------------|
G|------|-------------|------------|--------|-------------|----------|--------------------------|
D|------|-------------|------------|--------|-------------|----------|--------------------------|
A|------|-------------|------------|--------|-------------|----------|--------------------------|
E|------|-_-----------|------------|--------|-------------|----------|--------------------------|
 
e|--16--15--16--18--20--18--|-18--16--16--|------|-------------|--------------|----------|-------13--|
B|--------------------------|-------------|--12--|--9--12--13--|--13--13--19--|--18--14--|--11-------|
G|--------------------------|-------------|------|-------------|--------------|----------|-----------|
D|--------------------------|-------------|------|-------------|--------------|----------|-----------|
A|--------------------------|-------------|------|-------------|--------------|----------|-----------|
E|--------------------------|-------------|------|-------------|--------------|----------|-----------|
 
e|--15--13--12--|--13--15--16--13--15--16--|--16--15--16--18--20--18--16-|--16--15--16--18--20--18--16-|
B|--------------|--------------------------|-----------------------------|-----------------------------|
G|--------------|--------------------------|-----------------------------|-----------------------------|
D|--------------|--------------------------|-----------------------------|-----------------------------|
A|--------------|--------------------------|-----------------------------|-----------------------------|
E|--------------|--------------------------|-----------------------------|-----------------------------|
 
[Outro]
 
e|-----------------|--------------|-----------------|
B|-----------------|--------------|-----------------|
G|-----------------|--------------|-----------------|
D|-----------------|--------------|-----------------| 2 x 6
A|--3--4--3-----6--|--------------|--3--4--3-----6--|
E|-----------4-----|--4--4--4--4--|-----------4-----|
            
Submit corrections

↑ Back to top | Tablatures and chords for acoustic guitar and electric guitar, ukulele, drums are parodies/interpretations of the original songs. You may use it for private study, scholarship, research or language learning purposes only