» » »

Oingo Boingo - Dead Mans Party Bass

Artists:  A B C D E F G H I J K L M N O P Q R S T U V W X Y Z # 

Dead Mans Party Bass

(ver. 1) Click to play this song!
Oingo Boingo
 Rating:
3.3/5 (6 votes)
                (Standard Tuning)

G|---------------------------------|
D|---------------------------------|
A|-3---3------3----3----3---3------|
E|---------------------------------|
      I    was     struck    by    lightning
                        1&2&3  4
G|---------------------------------|
D|---------------------------------|
A|--1--1------1------3------3------|
E|---------------------------------|
      walking     down      the      street
                        1&2  3  4
G|---------------------------------|
D|----------------1---1------------|
A|-3-3----3---3-----------1---1----|
E|---------------------------------|
     I was struck by something last night
                       1&2&3&4&
G|------------------------------|
D|------------------------------|
A|--------------1----------1----|
E|----4-------------------------|
           in              my             sleep
                        1&2  3  4
G|---------------------------------|
D|---------------------------------|
A|-3---3-----3-----3-----3--3------|
E|---------------------------------|
    It's    a       dead   man's     party
                       1&2&  3  4
G|---------------------------------|
D|---------------------------------|
A|--1--1------1------3------3------|
E|---------------------------------|
     Who     could     ask     for    more?
                        1&2  3  4
G|---------------------------------|
D|--------------1--1---------------|
A|---3-3--3-3-----------1-----1----|
E|---------------------------------|
        Ev'rybody's   comin'   leave   your
                       1&2&3&4&
G|-------------------------------|
D|-------------------------------|
A|--------------------1----1-----|
E|---4--4-----4------------------|
        body       at          the    door
                       1&2  3  4
            
Submit corrections

↑ Back to top | Tablatures and chords for acoustic guitar and electric guitar, ukulele, drums are parodies/interpretations of the original songs. You may use it for private study, scholarship, research or language learning purposes only