» » »

Of Montreal - Wraith Pinned To The Mist And Other Games Bass

Artists:  A B C D E F G H I J K L M N O P Q R S T U V W X Y Z # 

Wraith Pinned To The Mist And Other Games Bass

(ver. 3) Click to play this song!
Of Montreal
 Rating:
4/5 (4 votes)


 Wraith Pinned To The Mist And Other Games lessons Tabs too difficult? Try these video lessons and learn fast
 
                ARTSIT: Of Montreal


An excellent song to play! Listen to the song to get all the rhythms.

INTRO/CHORUS:

G|-------------0-3-----------------|
D|-----0-0-3-3---------0-0-1-1-3-3-|
A|-1-1-------------1-1-------------|
E|---------------------------------|

G|---------------------0-0-1-1-2-2-|
D|-------------0-0-3-3-------------|
A|-----0-0-3-3---------------------|
E|-1-1-----------------------------|

Then, the last time before the verse, play...

G|---------------------------------|
D|-------------0-0-----0-0-3-8-6---|
A|-----0-0-3-3-----1-1-----------8-|
E|-1-1-----------------------------|

VERSE:

It’s just octaves, no biggie.

G|----------------------------------|
D|---8---8---8---8---10--10--10--10-|
A|----------------------------------|
E|-6---6---6---6---8---8---8---8----|

G|---10---10---10---10-----------------|
D|-----------------------8---8---8---8-|
A|-8----8----8----8--------------------|
E|---------------------6---6---6---6---|

G|----13----13----13----13---------------------|
D|---------------------------10---10---10---10-|
A|-11----11----11----11------------------------|
E|-------------------------8----8----8----8----|

G|-------------------10---10---10---10---10---10---10---10-|
D|---8---8---8---8-----------------------------------------|
A|-----------------8----8----8----8----8----8----8----8----|
E|-6---6---6---6-------------------------------------------|

Then you go back into the chorus!

And that’s the whole song! There’s no bass during the bridge.

Enjoy!
            
Submit corrections



        Wraith Pinned To The Mist And Other Games lessons Hard to play? Try these video lessons and learn fast Wraith Pinned To The Mist And Other Games lessons
        
↑ Back to top | Tablatures and chords for acoustic guitar and electric guitar, ukulele, drums are parodies/interpretations of the original songs. You may use it for private study, scholarship, research or language learning purposes only