» » »

Of Montreal - Womens Studies Victims Bass

Artists:  A B C D E F G H I J K L M N O P Q R S T U V W X Y Z # 

Womens Studies Victims Bass

(ver. 1) Click to play this song!
Of Montreal
 Rating:
4/5 (4 votes)


 Womens Studies Victims lessons Tabs too difficult? Try these video lessons and learn fast
 
                

This is for you guys at the Townhall.
--------------------------------------

Alright, this was tabbed according to what I heard in several live versions
 of the song. There are a few parts that I don't think are accurate enough,
 but I hope that this at least gives you the general idea of how the song
 goes.

There are two basses in the song, I've written what each one plays right below the other.

There are a few drum parts between each part, so listen to the song to know
 exactly when the basses come in and the right strumming.

----------------------------------------

Standard tuning

/ = Slide up
h = hammer on

------------------------------------------

Intro: After the 'ladies of the spread part', after the drums kick in:


(She took me home and spit...)

--1--&--2--&--3--&--4--&-|1--&--2--&--3--&--4--&--

G------------------------|------------------------|
D------------------------|------------------------|
A------------------------|---------------1----3---|
E-1h3--------------------|------------------------| (x3)

G------------------------|------------------------|
D------------------------|---------------3----2---|
A-------3h5--------------|------------------------|
E------------------------|------------------------| (x3)

--1--&--2--&--3--&--4--&-|1--&--2--&--3--&--4--&--

G------------------------|--------------------------|
D------------------------|--------------------------|
A------------------------|------------44-44-33-33---|
E-1h3--------------------|--------------------------|

G------------------------|------------------------|
D------------------------|------------33-33-22-22-|
A-------3h5--------------|------------------------|
E------------------------|------------------------|


------------------------------------------------------


(And kicked me out into the snow I waited for the bus...)

--1--&--2--&--3--&--4--&-|1--&--2--&--3--&--4--&--

G------------------------|------------------------|
D------------------------|------------------------|
A------------------------|---------------1----3---|
E-1h3333---33-1h33333--33|1h3333---33-------------| (x3)

G------------------------|------------------------|
D------------------------|---------------3----2---|
A-3h5555---55-3h5555---55|3h5555---55-------------|
E------------------------|------------------------| (x3)


------------------------------------------------------------


I'm not too sure about this part (It must be illicit... pentagram)

--1-&-2-&-3-&-4-&-|1-&-2-&-3-&-4-&-

G-----------------|-----------------|
D-----------------|-----------------|
A-----------------|-----------------|
E-4---------4-4-3-|6-----------8----|

G-----------------|-----------------|
D-3---------3-3-1-|0----------------|
A-----------------|-----------------|
E-----------------|-----------------|

---------------------------------------------


Melody right before the next verse:

--1-&-2-&-3-&-4-&-|

G-----------------|
D-----------------|
A-------------1-3-|
E-----------3-----|

(I check my shutter speed...)

--1--&--2--&--3--&--4--&-|1--&--2--&--3--&--4--&--

G------------------------|------------------------|
D------------------------|------------------------|
A------------------------|---------------1----3---|
E-1h3333---33-1h33333--33|1h3333---33-------------| (x2)

G------------------------|------------------------|
D------------------------|---------------3----2---|
A-3h5555---55-3h5555---55|3h5555---55-------------|
E------------------------|------------------------| (x2)


--1--&--2--&--3--&--4--&-|1--&--2--&--3--&--4--&--

G------------------------|------------------------|
D------------------------|------------------------|
A------------------------|------------44-44-33-33-|
E-1h3333---33-1h33333--33|1h3333---33-------------|

G------------------------|------------------------|
D------------------------|------------33-33-22-22-|
A-3h5555---55-3h5555---55|3h5555---55-------------|
E------------------------|------------------------|


--1--&--2--&--3--&--4--&-|

G------------------------|
D------------------------|
A------------------------|
E-1h3333---333---1-------|

G------------------------|
D------------------------|
A-3h5555---555---3-------|
E------------------------|


-------------------------------------------------


(Chinese stars...) (I'm not too sure about this part either)

--1-&-2-&-3-&-4-&-|1-&-2-&-3-&-4-&-|1-&-2-&-3-&-4-&-|1-&-2-&-3-&-4-&-|1--&-2-&-3-&-4-&-

G-----------------|----------------|----------------|----------------|------------------|
D-----------------|----------------|----------------|----------------|------------------|
A-55555-5-33333-3-|11111-1-00000-0-|----------------|----------------|------------------|
E-----------------|----------------|4-444-44-44-4-4-|3-333-33-33-333/|10----------------|

G-77777-7-55555-5-|33333-3-22222-2-|1-111-11-11-1-1-|0-000-00-00-000/|12----------------|
D-----------------|----------------|----------------|----------------|------------------|
A-----------------|----------------|----------------|----------------|------------------|
E-----------------|----------------|----------------|----------------|------------------|


---------------------------------------------------


(I'm trying to interface...)

--1-&-2-&-3-&-4-&-|1-&-2-&-3-&-4-&-|1-&-2-&-3-&-4-&-|1-&-2-&-3-&-4-&-

G-----------------|----------------|----------------|----------------|
D-----------------|----------------|----------------|----------------|
A-----------------|----------------|----------------|8--8--8---------|
E-7--7--7---------|5--5--5---------|6--6--6---------|----------------|

--1-&-2-&-3-&-4--&-|1-&-2-&-3-&-4--&-|1-&-2-&-3-&-4-&-|1-&-2-&-3-&-4-&-

G------------------|-----------------|----------------|----------------|
D------------------|-----------------|----------6-----|----------6-----|
A-9--9--9-----11---|-----------------|8--8--8-----8---|8--8--8-----8---|
E------------------|9--9--9-----11---|----------------|----------------|
            
Submit corrections



        Womens Studies Victims lessons Hard to play? Try these video lessons and learn fast Womens Studies Victims lessons
        
↑ Back to top | Tablatures and chords for acoustic guitar and electric guitar, ukulele, drums are parodies/interpretations of the original songs. You may use it for private study, scholarship, research or language learning purposes only