» » »

Oasis - Flashbax Tabs

Artists:  A B C D E F G H I J K L M N O P Q R S T U V W X Y Z # 

Flashbax Tabs

(ver. 2) Click to play this song!
Oasis
 Rating:
4/5 (4 votes)


 Flashbax lessons Tabs too difficult? Try these video lessons and learn fast
 
                Hi, my name is Jack, and as you know (or maybe you don't) there are literally NO tabs 
for this solo ANYWHERE on the internet,
i can see. So i had to work this all out
move the notes up or down 1 fret but
that shouldn't happen to you it should sound fine the way i have tabbed it. Any 



e------------------------------------------------------------7-------7-------7-----|
B---------------------------------------------------------------7h9-----7h9-----7--|
G--6b7--7--7r6--4--6--4-------4--6--4--6b7--7--7r6--4--6--4------------------------|
D------------------------4h6-------------------------------------------------------|
A----------------------------------------------------------------------------------|
E----------------------------------------------------------------------------------|

e--------------------------------------------------------------------------------/
B--------------------------------------------------------------------------------/
G--6b7--7--7r6--4--6--4h6p4---------------------------------------6--6--4--6--4--/
D----------------------------4h6p4-------4------------------4--6-----------------/
A-----------------------------------4h6-----4h6p4--2--4--6-----------------------/
E--------------------------------------------------------------------------------/



I also managed to work out how to play the whistling solo that comes after the guitar 
solo, so you can learn that too if you want.


e------14--12------12--14----------12h14p12------12h14p12------|
B--15----------15----------15--12------------15------------12--|
G--------------------------------------------------------------|
D--------------------------------------------------------------|
A--------------------------------------------------------------|
E--------------------------------------------------------------|

e----------17--19b--17------------12h14p12------12h14p12--------------|
B--15--17---------------17b---15------------15------------12--15--15--|
G---------------------------------------------------------------------|
D---------------------------------------------------------------------|
A---------------------------------------------------------------------|
E---------------------------------------------------------------------|

e----------17--19b--17-----------12h14p12------12h14p12----------14-|
B--15--17---------------17b--15------------15------------12--15-----|
G-------------------------------------------------------------------|
D-------------------------------------------------------------------|
A-------------------------------------------------------------------|
E-------------------------------------------------------------------|

-12h14p12------14--12h14p12------14--12h14p12-----/
-----------12----------------12----------------12-/
--------------------------------------------------/
--------------------------------------------------/
--------------------------------------------------/
--------------------------------------------------/
            
Submit corrections



        Flashbax lessons Hard to play? Try these video lessons and learn fast Flashbax lessons
        
↑ Back to top | Tablatures and chords for acoustic guitar and electric guitar, ukulele, drums are parodies/interpretations of the original songs. You may use it for private study, scholarship, research or language learning purposes only