Home » N » Nightwish »

Nightwish - Amaranth Bass

Artists:  A B C D E F G H I J K L M N O P Q R S T U V W X Y Z # 

Amaranth Bass

(ver. 3) Click to play this song!
Nightwish
0:13
G|----------------------------------------------------------------------|
D|----------------------------------------------------------------------|
A|-----------------------------3-3-----3-5-------------------1-1---0-0--|
D|-0---0-0---0-0-----3---3-3---------------0-0---0-0-----0--------------|

G|-----------------------------------------------------------------------|
D|-----------------------------------------------------------------------|
A|-0---------------------------3-3-----3-1-1-1-1-1-1-1-1-1---------------|
D|---0-0-0---0-0-----0---3-3-------------------------------1-1-1-1-1-1-1-|

G|---------------------------------|
D|---------------------------------|
A|---------------------------------|
D|-6-6---5-5---3---0-1-0---0-1-0---|

0:32
G|-----------------------------------------------------------------|
D|-----------------------------------------------------------------|
A|-----------------------------------------------------------------|
D|-0-0-0-0-0-0-0-0-0-0-0-0-0-0-0-0-0-0-0-0-0-0-0-0-0-0-0-0-0-0-0-0-|

G|-----------------------------------------------------------------|
D|-----------------------------------------------------------------|
A|-----------------------------------------------------------------|
D|-0-0-0-0-0-0-0-0-0-0-0-0-0-0-0-0-0-0-0-0-0-0-5-3-2-2-2-3-2-2-2-3-|

0:45
G|-----------------------------------------------------------------|
D|-----------------------------------------------------------------|
A|-----------------------------------------------------------------|
D|-0-0-3-2-0-0-0-0-0-0-0-0-0-0-0-0-0-0-5-3-0-0-0-0-0-0-0-0-0-0-0-0-|

G|-----------------------------------------------------------------|
D|-----------------------------------------------------------------|
A|-----------------------------------------------------------------|
D|-0-0-7-5-0-0-0-0-0-0-0-0-0-0-0-0-0-0-5-3-0-0-5-3-2-2-2-2-2-2-2-2-|

0:57
G|-----------------------------------------------------------------|
D|-----------------------------------------------------------------|
A|-----------------------------------------------------------------|
D|-5-5-5-3-5-5-5-3-0-0-0-0-0-0-0-0-5-5-5-3-5-5-5-3-1-1-1-1-1-1-1-1-|

1:05
G|---------------------------------------------------------------------|
D|---------------------------------------------------------------------|
A|-----------1-----1-----------3-----3-5---------1-----1-----------3---|
D|-0-0-0---0-----------3-3---3-----------0-0---0-----------3-3---3-----|

G|-----------------------------------------------------------------------|
D|-----------------------------------------------------------------------|
A|-3-5---------1-----1-----------3-----3-1-1-1-1-1-1-1-1-1---------------|
D|-----0-0---0-----------3-3---3---------------------------1-1-1-1-1-1-1-|

G|-----------------------------------|
D|o---------------------------------o|
A|o---------------------------------o|
D|--6-6---5-5---3---0-1-0---0-1-0----|

1:30
G|-----------------------------------------------------------------|
D|-----------------------------------------------------------------|
A|-----------------------------------------------------------------|
D|-0-0-3-2-0-0-0-0-0-0-0-0-0-0-0-0-0-0-5-3-0-0-0-0-0-0-0-0-0-0-0-0-|

G|-----------------------------------------------------------------|
D|-----------------------------------------------------------------|
A|-----------------------------------------------------------------|
D|-0-0-7-5-0-0-0-0-0-0-0-0-0-0-0-0-0-0-5-3-0-0-5-3-2-2-2-2-2-2-2-2-|

G|-----------------------------------------------------------------|
D|-----------------------------------------------------------------|
A|-----------------------------------------------------------------|
D|-5-5-5-3-5-5-5-3-0-0-0-0-0-0-0-0-5-5-5-3-5-5-5-3-1-1-1-1-1-1-1-1-|

1:51
G|---------------------------------------------------------------------|
D|---------------------------------------------------------------------|
A|-----------1-----1-----------3-----3-5---------1-----1-----------3---|
D|-0-0-0---0-----------3-3---3-----------0-0---0-----------3-3---3-----|

G|-----------------------------------------------------------------------|
D|-----------------------------------------------------------------------|
A|-3-5---------1-----1-----------3-----3-1-1-1-1-1-1-1-1-1---------------|
D|-----0-0---0-----------3-3---3---------------------------1-1-1-1-1-1-1-|

G|---------------------------------------------------------------------|
D|---------------------------------------------------------------------|
A|-----------1-----1-----------3-----3-5---------1-----1-----------3---|
D|-0-0-0---0-----------3-3---3-----------0-0---0-----------3-3---3-----|

G|-----------------------------------------------------------------------|
D|-----------------------------------------------------------------------|
A|-3-5---------1-----1-----------3-----3-1-1-1-1-1-1-1-1-1-3-3-3-3-3-3-3-|
D|-----0-0---0-----------3-3---3-----------------------------------------|

G|-----------------------------------|
D|o---------------------------------o|
A|o---------------------------------o|
D|--6-6---5-5---3---0-1-0---0-1-0----|

2:32
G|-----------------------------------------------------------------|
D|-----------------------------------------------------------------|
A|-----------------------------------------------------------------|
D|-0-1-0---0-1-0---0-1-0---0-1-3---0-1-0---0-1-0---0-1-0---0-1-3-0-|

G|-----------------------------------------------------------------|
D|-----------------------------------------------------------------|
A|-----------------------------------------------------------------|
D|-0-1-0---0-1-0---0-1-0---0-1-3-0-0-1-0---0-1-0---0-1-0---0-1-3-0-|

G|-----------------------------------------------------------------|
D|-----------------------------------------------------------------|
A|-----------------------------------------------------------------|
D|-0-3-0---0-3-0---0-3-0---0-3-5-0-0-3-0---0-3-0---0-3-0---0-3-5---|

Rest

3:10
G|---------------------------------------------------------------------------|
D|---------------------------------------------------------------------------|
A|-----------------3-----3-----------5-----5-7---------3-----3-----------5---|
D|-0---0-2-2-2---2-----------5-5---5-----------2-2---2-----------5-5---5-----|

G|-----------------------------------------------------------------------|
D|-----------------------------------------------------------------------|
A|-5-7---------3-----3-----------5-----5-3-3-3-3-3-3-3-3-3---------------|
D|-----2-2---2-----------5-5---5---------------------------3-3-3-3-3-3-3-|

G|---------------------------------------------------------------------|
D|---------------------------------------------------------------------|
A|-----------3-----3-----------5-----5-7---------3-----3-----------5---|
D|-2-2-2---2-----------5-5---5-----------2-2---2-----------5-5---5-----|

G|-----------------------------------------------------------------------|
D|-----------------------------------------------------------------------|
A|-5-7---------3-----3-----------5-----5-3-3-3-3-3-3-3-3-3-5-5-5-5-5-5-5-|
D|-----2-2---2-----------5-5---5-----------------------------------------|

3:43
G|-------------------------------------------------------------------------|
D|-------------------------------------------------------------------------|
A|-------------------------------------------------------------------------|
D|-0-6-6-6-0-5-5-5-0-3-3-0-1-0-0-0-1-0-0---6-6---5-5---3---0-1-0---0-1-0---|
            
Submit corrections

↑ Back to top | Tablatures and chords for acoustic guitar and electric guitar, ukulele, drums are parodies/interpretations of the original songs. You may use it for private study, scholarship, research or language learning purposes only