Home » N » Nightwish »

Nightwish - Amaranth Bass

Artists:  A B C D E F G H I J K L M N O P Q R S T U V W X Y Z # 

Amaranth Bass

(ver. 1) Click to play this song!
Nightwish
I play this wonderful song like this. I suppose it's quite correct but I'm not sure.

Intro: Only Piano. When it stops then starts the Chorus.

Chorus:

G|-----------------|-----------------|-----------------|----------------|
D|-----------------|-----------------|-----------------|----------------|
A|-----------------|-----------------|-----------------|---3--3---------|x3
D|---0------0--0---|---------0--0----|---3------3--3---|----------------|

G|-----------------|-----------------|
D|-----------------|-----------------|
A|-1-1-1-1-1-1-1-1-|-----------------|
D|-----------------|-1-1-1-1-1-1-1-1-|

Bridge:

G|-----------------|-----------------|-----------------|-----------------|
D|-----------------|-----------------|-----------------|-----------------|
A|-----------------|-----------------|-----------------|-----------------|
D|----6------6-----|----5------5-----|--------3--------|-0-1-0---0-1-0---|

Verse:

G|-----------------|-----------------|-----------------|-----------------|
D|-----------------|-----------------|-----------------|-----------------|
A|-----------------|-----------------|-----------------|-----------------|
D|-0-0-0-0-0-0-0-0-|-0-0-0-0-0-0-0-0-|-0-0-0-0-0-0-0-0-|-5-5-4-4-2-2-2-2-|

Bridge 2:

G|-----------------|-----------------|-----------------|-----------------|
D|-----------------|-----------------|-----------------|-----------------|
A|-----------------|-----------------|-----------------|-----------------|
D|-5-5-5--3--5-5-5-|-3-3-3-3-0-0-0-0-|-5-5-5--3--5-5-5-|-3-3-3-3-1-1-1-1-|

Chorus:

G|-----------------|-----------------|-----------------|----------------|
D|-----------------|-----------------|-----------------|----------------|
A|-----------------|-----------------|-----------------|---3--3---------|x3
D|---0------0--0---|---------0--0----|---3------3--3---|----------------|

G|-----------------|-----------------|
D|-----------------|-----------------|
A|-1-1-1-1-1-1-1-1-|-----------------|
D|-----------------|-1-1-1-1-1-1-1-1-|


Bridge:

G|-----------------|-----------------|-----------------|-----------------|
D|-----------------|-----------------|-----------------|-----------------|
A|-----------------|-----------------|-----------------|-----------------|x2
D|----6------6-----|----5------5-----|--------3--------|-0-1-0---0-1-0---|

Verse:

G|-----------------|-----------------|-----------------|-----------------|
D|-----------------|-----------------|-----------------|-----------------|
A|-----------------|-----------------|-----------------|-----------------|
D|-0-0-0-0-0-0-5-3-|-0-0-0-0-0-0-5-3-|-0-0-0-0-0-0-5-3-|-5-5-4-4-2-2-2-2-|

Bridge 2:

G|-----------------|-----------------|-----------------|-----------------|
D|-----------------|-----------------|-----------------|-----------------|
A|-----------------|-----------------|-----------------|-----------------|
D|-5-5-5--3--5-5-5-|-3-3-3-3-0-0-0-0-|-5-5-5--3--5-5-5-|-3-3-3-3-1-1-1-1-|

Chorus:

G|-----------------|-----------------|-----------------|----------------|
D|-----------------|-----------------|-----------------|----------------|
A|-----------------|-----------------|-----------------|---3--3---------|x3
D|---0------0--0---|---------0--0----|---3------3--3---|----------------|

G|-----------------|-----------------|
D|-----------------|-----------------|
A|-1-1-1-1-1-1-1-1-|-----------------|
D|-----------------|-1-1-1-1-1-1-1-1-|

Chorus:

G|-----------------|-----------------|-----------------|----------------|
D|-----------------|-----------------|-----------------|----------------|
A|-----------------|-----------------|-----------------|---3--3---------|x3
D|---0------0--0---|---------0--0----|---3------3--3---|----------------|

G|-----------------|-----------------|
D|-----------------|-----------------|
A|-1-1-1-1-1-1-1-1-|-----------------|
D|-----------------|-1-1-1-1-1-1-1-1-|

Bridge:

G|-----------------|-----------------|-----------------|-----------------|
D|-----------------|-----------------|-----------------|-----------------|
A|-----------------|-----------------|-----------------|-----------------|x2
D|----6------6-----|----5------5-----|--------3--------|-0-1-0---0-1-0---|

Bridge 3:

G|-----------------|-----------------|-----------------|-----------------|
D|-----------------|-----------------|-----------------|-----------------|
A|-----------------|-----------------|-----------------|-----------------|x6
D|----0--1--0------|----0--1--0------|----0--1--0------|----0--3--5------|

Same piano solo as intro without other instruments

and then...

Chorus 2

|-----------------|-----------------|-----------------|-----------------|
|-----------------|-----------------|-----------------|-----------------|
|-----------------|-----3---3-------|-----------------|-----5---5-------|
|-0-0-----2-2-2-2-|-----------------|-----5---5-------|-----------------|

|-----------------|-----------------|
|-----------------|-----------------|
|-3-3-3-3-3-3-3-3-|-----------------|
|-----------------|-3-3-3-3-3-3-3-3-|


|-----------------|-----------------|-----------------|-----------------|
|-----------------|-----------------|-----------------|-----------------|
|-----------------|-----3---3-------|-----------------|-----5---5-------|
|-0-0-----2-2-2-2-|-----------------|-----5---5-------|-----------------|

|-----------------|-----------------|
|-----------------|-----------------|
|-----------------|-----------------|
|-3-3-3-3-3-3-3-3-|-5-5-5-5-5-5-5-5-|


Bridge/Outro:

G|-----------------|-----------------|-----------------|-----------------|
D|-----------------|-----------------|-----------------|-----------------|
A|-----------------|-----------------|-----------------|-----------------|x2
D|----6------6-----|----5------5-----|--------3--------|-0-1-0---0-1-0---|

I hope that you find correct parts in it :-)
And if I did some errors in the tab structure, please forgive me: it is my first one :-) 
            
Submit corrections

↑ Back to top | Tablatures and chords for acoustic guitar and electric guitar, ukulele, drums are parodies/interpretations of the original songs. You may use it for private study, scholarship, research or language learning purposes only