» » »

Nickelback - How Your Remind Me Tabs

Artists:  A B C D E F G H I J K L M N O P Q R S T U V W X Y Z # 

How Your Remind Me Tabs

(ver. 1) Click to play this song!
Nickelback
 Rating:
4/5 (4 votes)

 How Your Remind Me lessons Tabs too difficult? Try these video lessons and learn fast
 
                How You Remind Me Nickelback


All gtrs. are in dropped-D tuning (low to high: D A D G B E)
= - Slide

[A] 1st verse
Moderate Rock=86

	Rhy. Fig. 1                      
Gtr. 1(clean tone)             end Rhy. Fig. 1
E|--3----3--3-3-------------|--------------------------|-------3--3-3--------------|
B|--3----3--3-3------3------|--------------------------|--3----3--3-3------3--x-x--|
G|--5----5--5-5-5----5--X-X-|--3----3--3-3-3----3--3=5-|--5----5--5-5-5----5--x-x--|
D|--5----5--5-5-5----5--X-X-|--3----3--3-3-3----3--3=5-|--5----5--5-5-5----5--x-x--|
A|--3----3--3-3-3----3--X-X-|--1----1--1-1-1----1--0---|--3----3--3-3-3----3--x-x--|
D|--------------3----3--X-X-|----------0-0-1----1------|--------------3----3--x-x--|
*doubled

Gtr. 2 (clean tone w/tremlo effect)   let ring throughout
|--------------------------|----3------------3-------|-------3-----------------||
|--------------------------|-------1>>>>(1)------1>>>|>(1)-------1-------------||
|--------------------------|-------------------------|---------------3>>(3)----||
|--------------------------|-------------------------|-------------------------||
|--------------------------|-------------------------|-------------------------||
|--------------------------|-------------------------|-------------------------||
|                          |                         |
|Gtr.1                    |                         |   >                      
|--------------------------|-------------------------|-------------------------||
|--------------------------|-----------------[-Tied-]|-------------------------||
|--3----3--3-3-3----3--3=5-|--5----5====8----8====10-|--10---------------------||
|--3----3--3-3-3----3--3=5-|--5----5====8----8====10-|--10---------------------||
|--1----1--1-1-1----1--0---|--3----3====6----6=====8-|---8---------------------||
|--------------1----1------|------------6----6=====8-|---8---------------------||
[B] Pre-chorus
    ***Gtr. 2 substitutes Fill On D.S.
Gtr.2
|---------------------------|----1----------------------|------|------------------------|
|---------------------------|---------------------------|------|------------------------|
|---------------------------|-------3-------------------|--Repeat last two measures-----|
|---------------------------|---------------------------|------|------------------------|
|---------------------------|---------------------------|------|------------------------|
|---------------------------|---------------------------|------|------------------------|
|
|Gtr.3 w/dist.
|---------------------------|---------------------------|------|------------------------|
|---------------------------|---------------------------|------|------------------------|
|----------Rest-------------|------------Rest-----------|-Rest-|------------------------|
|---------------------------|---------------------------|------|-3--/--/--/-------------|
|---------------------------|---------------------------|------|-1--/--/--/--1--/--/--/-|
|---------------------------|---------------------------|------|-------------1--/--/--/-|
| Gtr.1
| >     >      >     >        >     >      >     >
|-3--3--3--3-3-3--3--3--3-3-|---------------------------|------|------------------------|
|-3--3--3--3-3-3--3--3--3-3-|---------------------------|------|------------------------|
|-5--5--5--5-5-5--5--5--5-5-|-3--3--3--3-3-3--3--3------|--Repeat last two measurers----|
|-5--3--3--3-3-5--3--3--3-3-|-3--3--3--3-3-3--3--3------|------|------------------------|
|-3--3--3--3-3-3--3--3--3-3-|-1--1--1--1-1-1--1--1--0-0-|------|------------------------|
|--------------3--3--3--3-3-|--------------1--1--1--0-0-|------|------------------------|


Fill 1
	Gtr. 2 (clean tone w/tremlo)
|---3----------3--------|---1----------1--------|-------------------|-------------------|
|--------------------3--|--------------------1--|-------Repeat last 2 measures----------|
|------5>>>>5-----5-----|------3>>>>3-----3-----|-------------------|-------------------|
|-----------------------|-----------------------|-------------------|-------------------|
|-----------------------|-----------------------|-------------------|-------------------|
|-----------------------|-----------------------|-------------------|-------------------|

[C] Chorus

Gtr.3
||--------------------------|--------------------------|--------------------------|
||--------------------------|--------------------------|--------------------------|
||o-5----5--5-5-------------|-3----3--3-3--------------|-5----5--5-5--------------|
||o-5----5--5-5-1----1------|-3----3--3-3--------------|-5----5--5-5-1----1--0-0--|
||--3----3--3-3-1----1--0-0-|-1----1--0-0-3----3--0-0--|-3----3--3-3-1----1--0-0--|
||----------0-0-1----1--0-0-|-------------3----3--0-0--|---------0-0-1----1--0-0--|

Gtr. 3
|------------------------|------------------------------|
|------------------------|------------------------------|
|--3----3--3-3-----------|--5--5------------------------|
|--3----3--3-3-----------|--3--3----------1--1----------|
|--1----1--0-1-3----3----|--3--3----------1--1----------|
|--------------3----3----|----------------1--1----------|

Gtr. 3                                           3rd time skip ahead to [G]  
|------------------------|----------------------|-----------------------||
|------------------------|----------------------|-----------------------||
|--3----3--3-3-----------|--5----5--------------|--3----3--3------------||
|--3----3--3-3-----------|--5----5----1----1----|--3----3--3------------||
|--1----1--0-0-3----3----|--3----3----1----1----|--1----1--0--3----3----||
|--------------3----3----|------------1----1--0-|-------------3----3----||

   










Gtr. 2 (w/Leslie rotating effect)
|-----3-----------------|----1------------------|-----3-------------------|----1--------------------||
|-----------------------|-----------------------|-------------------------|-------------------------||
|-------5---------------|------3----------------|-------5-----------------|------3------------------||
|-----------------------|-----------------------|-------------------------|-------------------------||
|-----------------------|-----------------------|-------------------------|-------------------------||
|-----------------------|-----------------------|-------------------------|-------------------------||
|
|  Gtr. 3
|-----------------------|-----------------------|-------------------------|-------------------------||
|-----------------------|-----------------------|-------------------------|-------------------------||
|--5--------------------|--3--------------------|--5------5---------------|--3----3-----------------||
|--5--------3------3-x--|--3--------1------1-x--|--5------5---3------3-x--|--3----3------1----1-----||
|--3--------3------3-x--|--1--------1------1-x--|--3------3-x-3------3-x--|--1----1--0-0-1----1-----||
|-----------3------3-x--|-----------1------1-x--|-----------x-3------3-x--|----------0-0-1----1--0--||

[ 1.^^^^^^^^^^^^^^^^^^^^^^^^^^^^^^^^^^^^^^^^^^^^^^^^^^^^^^^^^^^^^^^^^^^^^^
	[E] 2nd Verse (1:02)
        
       Gtr.1 plays Rhy. Fig. 1 four times simile (see measure 1)
   Gtr. 2                
|--3------------------|---------------------|--3—3>>>>>>3---------|--1------------------|
|--3------------------|---------------------|--3------------------|--1------------------|
|--5------------------|---------------------|--5------------------|--3------------------|
|--5------------------|---------------------|---------------------|--3------------------|
|--3------------------|---------------------|---------------------|--1------------------|
|---------------------|---------------------|---------------------|---------------------|
|
|   Gtr. 3
|---------------------|---------------------|---------------------|---------------------|
|---------------------|---------------------|---------------------|---------------------|
|--5------------------|---------------------|---------------------|---------------------|
|--3------------------|---------------------|---------------------|---------------------|
|--3////////6/////////|/8-------------------|---------------------|---------------------|
|---------------------|---------------------|---------------------|---------------------|


^^^^^^^^^^^^^^^^^^^^^^^^^^^^^^^^^^^^^^^^^^^^^^^^^^^^^^^^^^^^^^^^^^^^^^^^^^^^^^^^^^^]
														Go back to [C]

|--3----------3-------|---1-----------------|--3----------3-------|---1------------------||
|-------------------3-|---------------------|-------------------3-|----------------------||
|-----5>>>>5-----5----|------3--------------|-----5>>>>5-----5----|------3--------------o||
|---------------------|---------------------|---------------------|---------------------o||
|---------------------|---------------------|---------------------|----------------------||
|---------------------|---------------------|---------------------|----------------------||
|
|
|---------------------|---------------------|---------------------|-----------------------------||
|---------------------|---------------------|---------------------|-----------------------------||
|---------------------|---------------------|---------------------|----------------------------o||
|---------------------|---------------------|---------------------|--3--3--3--3----------------o||
|---------------------|---------------------|---------------------|--1--1--1--1--1--1--1--1-1---||
|---------------------|---------------------|---------------------|--------------1--1--1--1-1---||


[2.^^^^^^^^^^^^^^^^^^^

	Gtr. 2
|---3-------------------|---1-------------------|---3------------------|---1----------------------||
|-----------------------|-----------------------|----------------------|--------------------------||
|-------5---------------|------3----------------|-------5--------------|------3-------------------||
|-----------------------|-----------------------|----------------------|--------------------------||
|-----------------------|-----------------------|----------------------|--------------------------||
|-----------------------|-----------------------|----------------------|--------------------------||
|
|	Gtr. 3
|-----------------------|-----------------------|----------------------|--------------------------||
|-----------------------|-----------------------|----------------------|--------------------------||
|--5----5---------------|-3----3--3-------------|-5------5-------------|-3----3-------------------||
|--5----5------3--------|-3----3--3--1--1----1--|-5------5---3--3------|-3----3------1-1--1--1----||
|--3----3--0-0-3--------|-1----1--1--1--1----1--|-3------3-x-3--3------|-1----1--0-0-1-1--1--1----||
|----------0-0-3--------|---------0--1--1----1--|----------x-3--3------|---------0-0-1-1--1--1--0-||
[F] Interlude


	Gtr. 1 plays Rhy. Fig. 1 twice simile (see meas. 1)
    Gtr. 2

|--3>>>>>>>>>>>>>>>>|>>3----------------|--3----------------|-------------------|--------------------|
|--3>>>>>>>>>>>>>>>>|>>3----------------|--3----------------|--1----------------|--3-----------------|
|--5>>>>>>>>>>>>>>>>|>>5----------------|--5----------------|--3----------------|--5--------5--------|
|--5>>>>>>>>>>>>>>>>|>>5----------------|--5----------------|--3----------------|--5--------5--------|
|--3>>>>>>>>>>>>>>>>|>>3----------------|--3----------------|--1----------------|--3--------3--------|
|-------------------|-------------------|-------------------|-------------------|-----------3--------|
|
|
|-------------------|-------------------|-------------------|-------------------|--------------------|
|-------------------|-------------------|-------------------|-------------------|--------------------|
|--5>>>>>>>>>>>>>>>>|>>5----------------|-------------------|-------------------|--------------------|
|--5>>>>>>>>>>>>>>>>|>>5----------------|-------------------|-------------------|--------------------|
|--3>>>>>>>>>>>>>>>>|>>3----------------|-------------------|-------------------|--------------------|
|-------------------|-------------------|-------------------|-------------------|--------------------|



Gtr. 1                                                             Go back to [B]
|--------------------|--------------------|--------------------|--3-----------------|--8---------------||
|------------1-------|--------------------|--------------------|--3--------6--------|--8---------------||
|---3--------3-------|--5--------8--------|-10-----------------|--5--------8--------|--10--------------||
|---3--------3-------|--5--------8--------|-10-----------------|--5--------8--------|--10--------------||
|---1--------1-------|--3--------6--------|--8-----------------|--3--------6--------|--8---------------||
|------------1-------|-----------6--------|--8-----------------|-----------6--------|--8---------------||







[G] Outro Chorus                                                  [H] Outro

   Gtr. 2 (w/ Leslie rotating speaker effect)
                                 Play 3 times                         [repeat 3 times]
||-----3-------------------|----1-----------1-------||----1-----------------||-----|--------------6----|
||-------------------------|------------------------||----------------------||--6--|--6--------6-------|
||o--5----5----------------|--3----3>>>>>3---------o||--5----5--------------||--5--|-----3--5----------|
||o------------------------|-----------------------o||----------------------||-----|-------------------|
||-------------------------|------------------------||----------------------||-----|-------------------|
||-------------------------|------------------------||----------------------||-----|-------------------|
|
|                                                                               >
||-------------------------|------------------------||----------------------||-----|-------------------|
||-------------------------|------------------------||----------------------||-----|-------------------|
||o--5----5----------------|--3----3--3------------o||--5----5--------------||--3>>|>>>>>>>>>>>>>>>>>>>|
||o--5----5----1--1----1-1-|--3----3--3--3--3----3-o||--5----5----1--1--1-1-||--3>>|>>>>>>>>>>>>>>>>>>>|
||---3----3----1--1----1-1-|--1----1--0--3--3----3--||--3----3----1--1--1-1-||--1>>|>>>>>>>>>>>>>>>>>>>|
||-------------1--1----1-1-|-------------3--3----3--||------------1--1--1-1-||-----|-------------------|
            
Submit corrections


        How Your Remind Me lessons Hard to play? Try these video lessons and learn fast How Your Remind Me lessons
        
↑ Back to top | Tablatures and chords for acoustic guitar and electric guitar, ukulele, drums are parodies/interpretations of the original songs. You may use it for private study, scholarship, research or language learning purposes only