» » »

Nickelback - How U Remind Me Tabs

Artists:  A B C D E F G H I J K L M N O P Q R S T U V W X Y Z # 

How U Remind Me Tabs

(ver. 2) Click to play this song!
Nickelback
 Rating:
4/5 (4 votes)

 How U Remind Me lessons Tabs too difficult? Try these video lessons and learn fast
 
                This is all done in drop D tuning



E---------------------|
B---------------------|
G----5-5----8-8--8/3--|
D----5-5----8-8--8/3--|
A----3-3----6-6----1--|
D---------3/6-6-------|


It does this once. There is a second guitar that plays the high part on this one part, but it can be successfully played with only one guitar as follows: 
This is the pre-chorus

E------3--------6--------3---3--|
B--------------------------1---1|
G----5---5----8---8--8/3--------|
D----5--------8------8/3--------|
A----3--------6--------1--------|
D-----------3/6-----------------|



The rest of the pre-chorus can be played as tabbed above,but I prefer to play chords because it is, after all, two guitars playing. The rest of the pre-choruses do not include this first part. 

Now this is VERY IMPORTANT. The chorus does NOT go as tabbed above. It goes like this (and if you'll listen, you'll get it too): 



E----------------------------------|
B----------------------------------|
G---5-5-5-----------3-3-3----------|
D---5-5-5---1-1-1---3-3-3---3-3-3--|
A---3-3-3---1-1-1---1-1-1---3-3-3--|
D-----------1-1-1-----------3-3-3--|
            
Submit corrections


        How U Remind Me lessons Hard to play? Try these video lessons and learn fast How U Remind Me lessons
        
↑ Back to top | Tablatures and chords for acoustic guitar and electric guitar, ukulele, drums are parodies/interpretations of the original songs. You may use it for private study, scholarship, research or language learning purposes only