» » »

Nickelback - How U Remind Me Tabs

Artists:  A B C D E F G H I J K L M N O P Q R S T U V W X Y Z # 

How U Remind Me Tabs

(ver. 1) Click to play this song!
Nickelback
 Rating:
4/5 (4 votes)

 How U Remind Me lessons Tabs too difficult? Try these video lessons and learn fast
 
                

Every time I go to find nickel back tabs there’s only one
And I worked out half the songs a day after I got it so I’m gonna add some
The song is written in c minor scale which I’ll show you at the end

intro
  Measure 1      measure 2      measure 3      
E|--------------|--------------|--------------|
B|--------------|--------------|--------------|
G|5--5--5-5--5--|3--3--3-3--3--|5--8--10------|
D|5--5--5-5--5--|3--3--3-3--3--|5--8--10------|
A|3--3-03-3—-3--|1--1-01-1—-1--|3--6--8-------|
D|-----03-3--3--|-----01-1--1--|--------------|
  1 + 2 + 3 + 4  1 + 2 + 3 + 4  1 + 2 + 3 + 4

measure 4 pre chorus
E|--------------|*=palm mute
B|--------------|
G|*-*-*-*-*-*-*-|
D|3-3-3-3-3-3-3-|
A|1-1-1-1-1-1-1-|
D|--------------|
  1 + 2 + 3 + 4

chorus

  measure 5      measure 6         measure 7      measure 8
E|--------------|--------------|  |--------------|--------------|
B|--------------|--------------|  |--------------|--------------|
G|5--5--5-------|3--3--3-------|  |5--5---5--5---|3--3---3--3---|
D|5--5--5-5--5--|3--3--3-3--3--|  |5--5---5--5---|3--3---3--3---|
A|3--3--3-5--5--|1--1--1-3--3--|  |3--3-0-3--3--0|1--1-0-1--1--0|
D|--------5--5--|--------3--3--|  |-----0-3--3--0|-----0-1--1--0|
  1 + 2 + 3 + 4  1 + 2 + 3 + 4     1 + 2 + 3 + 4  1 + 2 + 3 + 4

At this point repeat measure 3 but only play the root notes of the chords
And while guitar one is playing measure one and two 
Guitar two is playing this

  Measure 9      measure 10
E|---3---3------|---1---1------|
B|-----3---3----|-----1---1----|
G|-----------5--|-----------3--|
D|--------------|--------------|
A|3-------------|1-------------|
D|--------------|--------------|
  1 + 2 + 3 + 4  1 + 2 + 3 + 4

And that’s basically the whole song just follow the order
And you’ll be okay
sorry if it's a bit shoty but i tabed it from memory at school 
and i canmt realy do it at home b'cause i gave the cd to my sister
and i don't have a computer at home either other wise i would
be posting tabs every day

i f you have any problems you can e-mail me at

c minor

e--------------------------8-11------
b---------------------8-11-----------
g----------------8-10----------------
d-----------8-10---------------------
a------8-10--------------------------
e-8-11-------------------------------
            
Submit corrections


        How U Remind Me lessons Hard to play? Try these video lessons and learn fast How U Remind Me lessons
        
↑ Back to top | Tablatures and chords for acoustic guitar and electric guitar, ukulele, drums are parodies/interpretations of the original songs. You may use it for private study, scholarship, research or language learning purposes only