» » »

Newsong - Psalm 4 Tabs

Artists:  A B C D E F G H I J K L M N O P Q R S T U V W X Y Z # 

Psalm 4 Tabs

(ver. 1) Click to play this song!
Newsong
 Rating:
4/5 (4 votes)

 Psalm 4 lessons Tabs too difficult? Try these video lessons and learn fast
 
                "(0)
-------------------------------------------------------------------------------
                             PSALMS 40 - New Song
-------------------------------------------------------------------------------

Tuning: Standard

Intro

e|----------7---7---2---2---3---3---3---x---x---x----------------------------|
B|---3/8----8---8---3---3---3---3---3---3---3---3---------------2X-----------|
G|----------0---0---0---0---0---0---0---0---0---0----------------------------|
D|---------------------------------------------------------------------------|
A|---------------------------------------------------------------------------|
E|---------------------------------------------------------------------------|

ver 1 Gtr 1(i... will wait) ... Just continue riff... listen to funk
e|---------------------------------------------------------------------------|
B|---------------------------------------------------------------------------|
G|----------------------5p4------------------------------5p4-----------------|
D|----------5--3--5------------------------5--3--5-----------------(Repeat)--|
A|---------------------------------------------------------------------------|
E|---3---------------------------3--3----------------------------------------|

Gtr 2 Lead plays with the words (I actually made this part up)
e|---------------------------------------------------------------------------|
B|---8------------------10----12--------------------10----8------------------|
G|--------12--10--12------------------12--10--12---------------12--10--12----|
D|---------------------------------------------------------------------------|
A|---------------------------------------------------------------------------|
E|---------------------------------------------------------------------------|

e|---------------------------------------------------------------------------|
B|------8----------------13p12-----------------------------------------------|
G|-9-------12--10--12--------------------------------------------------------|
D|---------------------------------------------------------------------------|
A|---------------------------------------------------------------------------|
E|---------------------------------------------------------------------------|

e|---------------------------------------------------------------------------|
B|---8------------------10----12--------------------10----8------------------|
G|--------12--10--12------------------12--10--12---------------12--10--12----|
D|---------------------------------------------------------------------------|
A|---------------------------------------------------------------------------|
E|---------------------------------------------------------------------------|

e|---------------------------------------------------------------------------|
B|------8--------------------------------------------------------------------|
G|-9-------12--10--12/-------------------------------------------------------|
D|---------------------------------------------------------------------------|
A|---------------------------------------------------------------------------|
E|---------------------------------------------------------------------------|

pre chorus (you lift... me higher and higher)
     D          B          C
e|-------] e[-------] e[-------]
B|-------] B[-------] B[-------]
G|---7---] G[---4---] G[---5---]
D|---7---] D[---4---] D[---5---]
A|---5---] A[---2---] A[---3---]
E|-------] E[-------] E[-------]

      d   b   c
You lift me higher and higher
   d      b        c
Youre my one and only desire

Chorus
e|-------] e[-------] e[-------] e[-------]
B|-------] B[-------] B[-------] B[-------]
G|-------] G[---7---] G[---9---] G[---5---]
D|---5---] D[---7---] D[---9---] D[---5---]
A|---5---] A[---5---] A[---7---] A[---3---]
E|---3---] E[-------] E[-------] E[-------]

You put a new song in my mouth a
Hymn of praise to you
all i wanna do when i wake up
is spend my day with you
you put a new song in my mouth a
hymn of praise to you
you place my feet on the rock lord
i put my trust in you

Sing a new song (play intro, then song starts over)

At the end where they repeat i will wait... i will wait for you... guitar 1 plays the 
riff while guitar 2 plays:


e|------7--------------------------------------------------------------------|
B|----8---8----------------------8---8---------------------------------------|
G|-----------------5--5~-4~----------------5--5--4~--------------------------|
D|---------------------------------------------------------------------------|
A|---------------------------------------------------------------------------|
E|---------------------------------------------------------------------------|

At the last couple lines the song will mellow but they still play this rift.


Please rate
"            
Submit corrections


        Psalm 4 lessons Hard to play? Try these video lessons and learn fast Psalm 4 lessons
        
↑ Back to top | Tablatures and chords for acoustic guitar and electric guitar, ukulele, drums are parodies/interpretations of the original songs. You may use it for private study, scholarship, research or language learning purposes only