» » »

New Radicals - You Get What You Give Tabs

Artists:  A B C D E F G H I J K L M N O P Q R S T U V W X Y Z # 

You Get What You Give Tabs

(ver. 2) Click to play this song!
New Radicals
 Rating:
4/5 (13 votes)

 You Get What You Give lessons Tabs too difficult? Try these video lessons and learn fast
 
                INTRO
                                x6
|---------------------------------|
|-2-2-2-2-2-2-2-2-3-3-3-3-3-3-3-3-|
|-2-2-2-2-2-2-2-2-0-0-0-0-0-0-0-0-|
|---------------------------------|
|---------------------------------|
|---------------------------------|

DMaj9 //// Cadd9 //// DMaj9 //// Cadd9 ////
|-0----------0---------0-----------0------|
|-2----------3---------2-----------3------|
|-2----------0---------2-----------0------|
|-0----------2---------0-----------2------|
|------------3---------------------3------|
|-----------------------------------------|

VERSE
DMaj9 //// Cadd9 //// DMaj9 //// Cadd9 ////
|-0----------0---------0-----------0------|
|-2----------3---------2-----------3------|
|-2----------0---------2-----------0------|
|-0----------2---------0-----------2------|
|------------3---------------------3------|
|-----------------------------------------|


DMaj9 //// Cadd9 //// Em //// Asus4 // A //
|-0----------0---------0--------0------0--|
|-2----------3---------0--------3------2--|
|-2----------0---------0--------2------2--|
|-0----------2---------2--------2------2--|
|------------3---------2--------0------0--|
|----------------------0------------------|

DMaj9 //// Cadd9 //// DMaj9 //// Cadd9 ////
|-0----------0---------0-----------0------|
|-2----------3---------2-----------3------|
|-2----------0---------2-----------0------|
|-0----------2---------0-----------2------|
|------------3---------------------3------|
|-----------------------------------------|

DMaj9 //// Cadd9 //// Em //// Asus4 // A //
|-0----------0---------0--------0------0--|
|-2----------3---------0--------3------2--|
|-2----------0---------0--------2------2--|
|-0----------2---------2--------2------2--|
|------------3---------2--------0------0--|
|----------------------0------------------|







PRE-CHORUS
	F#m //// Bm // A //
|--------2-------2-----0------------------|
|--------2-------3-----2------------------|
|--------2-------4-----2------------------|
|--------4-------4-----2------------------|
|--------4-------2-----0------------------|
|--------2--------------------------------|

	G //// Asus4 // A //
|-------3-------0-------0-----------------|
|-------3-------3-------2-----------------|
|-------0-------2-------2-----------------|
|-------0-------2-------2-----------------|
|-------2-------0-------0-----------------|
|-------3---------------------------------|

	F#m //// Bm ////
|--------2-------2------------------------|
|--------2-------3------------------------|
|--------2-------4------------------------|
|--------4-------4------------------------|
|--------4-------2------------------------|
|--------2--------------------------------|

	Asus2 ////////
|-------0---------------------------------|
|-------0---------------------------------|
|-------2---------------------------------|
|-------2---------------------------------|
|-------0---------------------------------|
|-----------------------------------------|

CHORUS
	G //// Asus4 // A //
|-------3-------0-------0-----------------|
|-------3-------3-------2-----------------|
|-------0-------2-------2-----------------|
|-------0-------2-------2-----------------|
|-------2-------0-------0-----------------|
|-------3---------------------------------|

	F#m //// Bm // A //
|--------2-------2-----0------------------|
|--------2-------3-----2------------------|
|--------2-------4-----2------------------|
|--------4-------4-----2------------------|
|--------4-------2-----0------------------|
|--------2--------------------------------|
	
	G //// Asus4 // A //
|-------3-------0-------0-----------------|
|-------3-------3-------2-----------------|
|-------0-------2-------2-----------------|
|-------0-------2-------2-----------------|
|-------2-------0-------0-----------------|
|-------3---------------------------------|
	F#m //// Bm // A //
|--------2-------2-----0------------------|
|--------2-------3-----2------------------|
|--------2-------4-----2------------------|
|--------4-------4-----2------------------|
|--------4-------2-----0------------------|
|--------2--------------------------------|

	G //// C // G //
|-------3------0----3---------------------|
|-------3------1----3---------------------|
|-------0------0----0---------------------|
|-------0------2----0---------------------|
|-------2------3----2---------------------|
|-------3-----------3---------------------|

BRIDGE
DMaj9 //// Cadd9 //// DMaj9 //// Cadd9 ////
|-0----------0---------0-----------0------|
|-2----------3---------2-----------3------|
|-2----------0---------2-----------0------|
|-0----------2---------0-----------2------|
|------------3---------------------3------|
|-----------------------------------------|

VERSE 2
DMaj9 //// Cadd9 //// DMaj9 //// Cadd9 ////
|-0----------0---------0-----------0------|
|-2----------3---------2-----------3------|
|-2----------0---------2-----------0------|
|-0----------2---------0-----------2------|
|------------3---------------------3------|
|-----------------------------------------|

DMaj9 //// Cadd9 //// Em //// Asus4 // A //
|-0----------0---------0--------0------0--|
|-2----------3---------0--------3------2--|
|-2----------0---------0--------2------2--|
|-0----------2---------2--------2------2--|
|------------3---------2--------0------0--|
|----------------------0------------------|
PRECHORUS 2
	F#m //// Bm // A //
|--------2-------2-----0------------------|
|--------2-------3-----2------------------|
|--------2-------4-----2------------------|
|--------4-------4-----2------------------|
|--------4-------2-----0------------------|
|--------2--------------------------------|

	G //// Asus4 // A //
|-------3-------0-------0-----------------|
|-------3-------3-------2-----------------|
|-------0-------2-------2-----------------|
|-------0-------2-------2-----------------|
|-------2-------0-------0-----------------|
|-------3---------------------------------|

	F#m //// Bm ////
|--------2-------2------------------------|
|--------2-------3------------------------|
|--------2-------4------------------------|
|--------4-------4------------------------|
|--------4-------2------------------------|
|--------2--------------------------------|

	Asus2 ////////
|-------0-------------------------|
|-------0-------------------------|
|-------2-------------------------|
|-------2-------------------------|
|-------0-------------------------|
|---------------------------------|

CHORUS 2
	G //// Asus4 // A //
|-------3-------0-------0-----------------|
|-------3-------3-------2-----------------|
|-------0-------2-------2-----------------|
|-------0-------2-------2-----------------|
|-------2-------0-------0-----------------|
|-------3---------------------------------|

	F#m //// Bm // A //
|--------2-------2-----0------------------|
|--------2-------3-----2------------------|
|--------2-------4-----2------------------|
|--------4-------4-----2------------------|
|--------4-------2-----0------------------|
|--------2--------------------------------|

	G //// Asus4 // A //
|-------3-------0-------0-----------------|
|-------3-------3-------2-----------------|
|-------0-------2-------2-----------------|
|-------0-------2-------2-----------------|
|-------2-------0-------0-----------------|
|-------3---------------------------------|

	F#m //// Bm // A //
|--------2-------2-----0------------------|
|--------2-------3-----2------------------|
|--------2-------4-----2------------------|
|--------4-------4-----2------------------|
|--------4-------2-----0------------------|
|--------2--------------------------------|

	G //// C // G //
|-------3------0----3---------------------|
|-------3------1----3---------------------|
|-------0------0----0---------------------|
|-------0------2----0---------------------|
|-------2------3----2---------------------|
|-------3-----------3---------------------|
SOLO
	DMaj9 //// AMaj11 // G //
|---------0----------0-------3------------|
|---------2----------3-------3------------|
|---------2----------0-------0------------|
|---------0----------2-------0------------|
|--------------------0-------2------------|
|----------------------------3------------|

	DMaj9 //// AMaj11 // G //
|---------0----------0-------3------------|
|---------2----------3-------3------------|
|---------2----------0-------0------------|
|---------0----------2-------0------------|
|--------------------0-------2------------|
|----------------------------3------------|

INTERLUDE
	DMaj9 //// AMaj11 // G //
|---------0----------0-------3------------|
|---------2----------3-------3------------|
|---------2----------0-------0------------|
|---------0----------2-------0------------|
|--------------------0-------2------------|
|----------------------------3------------|

	DMaj9 //// AMaj11 // G //
|---------0----------0-------3------------|
|---------2----------3-------3------------|
|---------2----------0-------0------------|
|---------0----------2-------0------------|
|--------------------0-------2------------|
|----------------------------3------------|

	DMaj9 //// AMaj11 // G //
|---------0----------0-------3------------|
|---------2----------3-------3------------|
|---------2----------0-------0------------|
|---------0----------2-------0------------|
|--------------------0-------2------------|
|----------------------------3------------|

	DMaj9 ////
|---------0-------------------------------|
|---------2-------------------------------|
|---------2-------------------------------|
|---------0-------------------------------|
|-----------------------------------------|
|-----------------------------------------|

Asus4 //// A //// Asus4 //// A ////
|--0-------0---------0-------0--------|
|--3-------2---------3-------2--------|
|--2-------2---------2-------2--------|
|--2-------2---------2-------2--------|
|--0-------0---------0-------0--------|
|-------------------------------------|
CHORUS 3
	G //// Asus4 // A //
|-------3-------0-------0-----------------|
|-------3-------3-------2-----------------|
|-------0-------2-------2-----------------|
|-------0-------2-------2-----------------|
|-------2-------0-------0-----------------|
|-------3---------------------------------|

	F#m //// Bm // A //
|--------2-------2-----0------------------|
|--------2-------3-----2------------------|
|--------2-------4-----2------------------|
|--------4-------4-----2------------------|
|--------4-------2-----0------------------|
|--------2--------------------------------|

	G //// Asus4 // A //
|-------3-------0-------0-----------------|
|-------3-------3-------2-----------------|
|-------0-------2-------2-----------------|
|-------0-------2-------2-----------------|
|-------2-------0-------0-----------------|
|-------3---------------------------------|
	F#m //// Bm // A //
|--------2-------2-----0------------------|
|--------2-------3-----2------------------|
|--------2-------4-----2------------------|
|--------4-------4-----2------------------|
|--------4-------2-----0------------------|
|--------2--------------------------------|

	G //// Asus4 // A //
|-------3-------0-------0-----------------|
|-------3-------3-------2-----------------|
|-------0-------2-------2-----------------|
|-------0-------2-------2-----------------|
|-------2-------0-------0-----------------|
|-------3---------------------------------|

	F#m //// Bm // A //
|--------2-------2-----0------------------|
|--------2-------3-----2------------------|
|--------2-------4-----2------------------|
|--------4-------4-----2------------------|
|--------4-------2-----0------------------|
|--------2--------------------------------|

G //// Asus4 // A //
|-------3-------0-------0-----------------|
|-------3-------3-------2-----------------|
|-------0-------2-------2-----------------|
|-------0-------2-------2-----------------|
|-------2-------0-------0-----------------|
|-------3---------------------------------|
	

	F#m //// Bm // A //
|--------2-------2-----0------------------|
|--------2-------3-----2------------------|
|--------2-------4-----2------------------|
|--------4-------4-----2------------------|
|--------4-------2-----0------------------|
|--------2--------------------------------|

	G //// Asus4 // A //
|-------3-------0-------0-----------------|
|-------3-------3-------2-----------------|
|-------0-------2-------2-----------------|
|-------0-------2-------2-----------------|
|-------2-------0-------0-----------------|
|-------3---------------------------------|

	F#m //// Bm // A //
|--------2-------2-----0------------------|
|--------2-------3-----2------------------|
|--------2-------4-----2------------------|
|--------4-------4-----2------------------|
|--------4-------2-----0------------------|
|--------2--------------------------------|

	G //// Asus4 // A //
|-------3-------0-------0-----------------|
|-------3-------3-------2-----------------|
|-------0-------2-------2-----------------|
|-------0-------2-------2-----------------|
|-------2-------0-------0-----------------|
|-------3---------------------------------|

	F#m //// Bm // A //
|--------2-------2-----0------------------|
|--------2-------3-----2------------------|
|--------2-------4-----2------------------|
|--------4-------4-----2------------------|
|--------4-------2-----0------------------|
|--------2--------------------------------|

	G //// Asus4 // A //
|-------3-------0-------0-----------------|
|-------3-------3-------2-----------------|
|-------0-------2-------2-----------------|
|-------0-------2-------2-----------------|
|-------2-------0-------0-----------------|
|-------3---------------------------------|

	F#m //// Bm // A //
|--------2-------2-----0------------------|
|--------2-------3-----2------------------|
|--------2-------4-----2------------------|
|--------4-------4-----2------------------|
|--------4-------2-----0------------------|
|--------2--------------------------------|


OUTRO - Fade out on this progression
G //// Asus4 // A //
|-------3-------0-------0-----------------|
|-------3-------3-------2-----------------|
|-------0-------2-------2-----------------|
|-------0-------2-------2-----------------|
|-------2-------0-------0-----------------|
|-------3---------------------------------|
	F#m //// Bm // A //
|--------2-------2-----0------------------|
|--------2-------3-----2------------------|
|--------2-------4-----2------------------|
|--------4-------4-----2------------------|
|--------4-------2-----0------------------|
|--------2--------------------------------|


Chords
  A Asus2 Asus4 AMaj11 Bm C Cadd9 DMaj9 Em F#m G
|-0---0-----0------0---2--0---0-----0---0---2--3-|
|-2---0-----3------3---3--1---3-----2---0---2--3-|
|-2---2-----2------0---4--0---0-----2---0---2--0-|
|-2---2-----2------2---4--2---2-----0---2---4--0-|
|-0---0-----0------0---2--3---3---------2---4--2-|
|---------------------------------------0---2--3-|
            
Submit corrections


        You Get What You Give lessons Hard to play? Try these video lessons and learn fast You Get What You Give lessons
        
↑ Back to top | Tablatures and chords for acoustic guitar and electric guitar, ukulele, drums are parodies/interpretations of the original songs. You may use it for private study, scholarship, research or language learning purposes only